It´s Not A Fashion Statement, It´s A Fucking Death Wish, My Chemical Romance (tablatura)

Autor: darkmoonnight | 45845 visualizaciones



no esta exactamente igual ... pero es el intento px xD

INTRO:
(G2)
3|-6--6-6-6--6-6--6-6-6-6--6-6-6-8-9-8-6-|
4|-x--x-x-x--x-x--x-x-x-x--x-x-x-x-x-x-x-|
5|-4--4-4-4--4-4--4-4-4-x--x-x-x-x-x-x-x-|
6|----------------------5--5-5-5-5-5-5-5-|

3|-9--9-9-9--8-8--8-8-8-8--6--8-6-5-5-5-|
4|-x--x-x-x--x-x--x-x-x-x--x--x-x-x-x-x-|
5|-x--x-x-x--x-x--x-x-x-x--x--x-x-x-x-x-|
6|-7--7-7-7--7-7--7-7-7-7--4--4-4-4-4-4-|

(G1 Y G2)
3|-6--6-6-6--6-6--6-6-6-6--6-6-6-8-9-8-6-|
4|-x--x-x-x--x-x--x-x-x-x--x-x-x-x-x-x-x-|
5|-4--4-4-4--4-4--4-4-4-x--x-x-x-x-x-x-x-|
6|----------------------5--5-5-5-5-5-5-5-|

3|-9--9-9-9--8-8--8-8-8-8--x--x-x-x-x-x-|
4|-x--x-x-x--x-x--x-x-x-x--x--x-x-x-x-x-|
5|-x--x-x-x--x-x--x-x-x-x--x--x-x-x-x-x-|
6|-7--7-7-7--7-7--7-7-7-7--x--x-x-x-x-x-|
................................................................
(G1)(estos son onces tambien y doces{12})
3|-13131313131313131313131313131313-11111111-|
4|-x x x x x x x x x x x x x x x x -x x x x -|
5|-11111111111111111111111111111111-9 9 9 9 -|

3|-9999999999-11111111-8888-|
4|-xxxxxxxxxx-x x x x -xxxx-|
5|-7777777777-9 9 9 9 -6666-|

(G2)
3|-6-6-6-6-6-6-6-6-6-6-6-6-6-6-6-6-6-8-9-8-6-|
4|-x-x-x-x-x-x-x-x-x-x-x-x-x-x-x-x-x-x-x-x-x-|
5|-4-4-4-4-4-4-4-4-4-4-4-4-x-x-x-x-x-x-x-x-x-|
6|-------------------------5-5-5-5-5-5-5-5-5-|

3|-9-9-9-9-9-8-8-8-8-8-8-8-8--5-5-5-5-5-5-5-|
4|-x-x-x-x-x-x-x-x-x-x-x-x-x--x-x-x-x-x-x-x-|
5|-x-x-x-x-x-x-x-x-x-x-x-x-x--x-x-x-x-x-x-x-|
6|-7-7-7-7-7-7-7-7-7-7-7-7-7--4-4-4-4-4-4-4-|
................................................................
(G1)
3|6--6-6-6--6-6--6-6-6-9--9-9-9-12-12-12-12-|
4|x--x-x-x--x-x--x-x-x-x--x-x-x-x -x -x -x -|
5|4--4-4-4--4-4--4-4-4-7--7-7-7-11-11-11-11-|

(G2)
3|---------------------6--6-6-6-6-6-6-6-|
4|---------------------x--x-x-x-x-x-x-x-|
5|---------------------x--x-x-x-x-x-x-x-|
6|---------------------4--4-4-4-4-4-4-4-|
................................................................
VERSO 1:
(G1)
3|-6666666666666666-----------------------------------------------------------------|
4|-6666666666666666-7777777777777777-9999999999999999-x-x-x-x-x-x-x-x-x-x-x-x-x-x-x-|
5|-4444444444444444-7777777777777777-9999999999999999-x-x-6-x-x-7-x-x-9-x-x-7-x-x-6-|
6|------------------5555555555555555-7777777777777777-4-4-4-4-4-4-4-4-4-4-4-4-4-4-4-|

(G2)
3|-6-6-6-6-6-6-6-6-6-6-6-6-6-6-6-6-6-8-9-8-6-|
4|-x-x-x-x-x-x-x-x-x-x-x-x-x-x-x-x-x-x-x-x-x-|
5|-4-4-4-4-4-4-4-4-4-4-4-4-x-x-x-x-x-x-x-x-x-|
6|-------------------------5-5-5-5-5-5-5-5-5-|

3|-9-9-9-9-9-8-8-8-8-8-8-8-8--------------------------------|
4|-x-x-x-x-x-x-x-x-x-x-x-x-x--x-x-x-x-x-x-x-x-x-x-x-x-x-x-x-|
5|-x-x-x-x-x-x-x-x-x-x-x-x-x--x-x-6-x-x-7-x-x-9-x-x-7-x-x-6-|
6|-7-7-7-7-7-7-7-7-7-7-7-7-7--4-4-4-4-4-4-4-4-4-4-4-4-4-4-4-|
................................................................
(G1)
3|-6666666666666666-----------------------------------------------------------------|
4|-6666666666666666-7777777777777777-9999999999999999-x-x-x-x-x-x-x-x-x-x-x-x-x-x-x-|
5|-4444444444444444-7777777777777777-9999999999999999-x-x-6-x-x-7-x-x-9-x-x-7-x-x-6-|
6|------------------5555555555555555-7777777777777777-4-4-4-4-4-4-4-4-4-4-4-4-4-4-4-|

(G2)
3|-6-6-6-6-6-6-6-6-6-6-6-6-6-6-6-6-6-8-9-8-6-|
4|-x-x-x-x-x-x-x-x-x-x-x-x-x-x-x-x-x-x-x-x-x-|
5|-4-4-4-4-4-4-4-4-4-4-4-4-x-x-x-x-x-x-x-x-x-|
6|-------------------------5-5-5-5-5-5-5-5-5-|

3|-9-9-9-9-9-8-8-8-8-8-8-8-8--x-x-8-x-x-9-x-x-11-x-x-9-x-x-8-|
4|-x-x-x-x-x-x-x-x-x-x-x-x-x--x-x-x-x-x-x-x-x-x -x-x-x-x-x-x-|
5|-x-x-x-x-x-x-x-x-x-x-x-x-x--x-x-6-x-x-7-x-x-9 -x-x-7-x-x-6-|
6|-7-7-7-7-7-7-7-7-7-7-7-7-7---------------------------------|
................................................................
(G1)
4|-7777777777777777-9999999999999999-6666666666666666-7777777777777777-|
5|-7777777777777777-9999999999999999-6666666666666666-7777777777777777-|
6|-5555555555555555-7777777777777777-4444444444444444-5555555555555555-|

(G2)
4|-7777777799999999-999999991111111111111111-6666666888888888-8888888888888888-|
5|-7777777777777777-999999999 9 9 9 9 9 9 9 -6666666666666666-7777777777777777-|
6|-5555555555555555-777777777 7 7 7 7 7 7 7 -4444444444444444-5555555555555555-|
................................................................
(G1)
3|-66666666-8888-9999-44444444-8888-9999-|
4|-xxxxxxxx-xxxx-xxxx-xxxxxxxx-xxxx-xxxx-|
5|-44444444-6666-7777-22222222-6666-7777-|

(G2)
3|-666666666666666666-444444444444444444-|
4|-666666666666666666-444444444444444444-|
5|-444444444444444444-222222222222222222-|
................................................................
(G1)
4|-6666666666666666-6-7-6-7-7-6-7---7-9-|
5|-6666666666666666-6-7-6-7-7-6-7---7-9-|
6|-4444444444444444-4-5-4-5-5-4-5---5-7-|

(G2)
3|-6666666666666666-6-9-8-9-9-8-9---9-11-|
4|-6666666666666666-6-9-8-9-9-8-9---9-11-|
5|-4444444444444444-4-7-6-7-7-6-7---7-9 -|
................................................................
CORO:
(G1)
3|99999999-111111111111111-1313131313131313-13-14-13-11-|
4|xxxxxxxx-x x x x x x x x-x x x x x x x x -x -x -x -x -|
5|77777777-9 9 9 9 9 9 9 9-1111111111111111-11-12-11-9 -|

3|-9999999999999999-1111111111111111111111111111111-|
4|-xxxxxxxxxxxxxxxx-x x x x x x x x x x x x x x x x-|
5|-7777777777777777-9 9 9 9 9 9 9 9 9 9 9 9 9 9 9 9-|

3|-99999999-88888888-6--6-6-6--6-6--6-6-6-|
4|-xxxxxxxx-xxxxxxxx-x--x-x-x--x-x--x-x-x-|
5|-77777777-66666666-4--4-4-4--4-4--4-4-4-|

3|-9999999999999999-1111111111111111111111-xxxxxxxxx-|
4|-xxxxxxxxxxxxxxxx-x x x x x x x x x x x -xxxxxxxxx-|
5|-7777777777777777-9 9 9 9 9 9 9 9 9 9 9 -xxxxxxxxx-|


(G2)
3|-9999999999999999-11111111111111111111111111111111-|
4|-9999999999999999-9 9 9 9 9 9 9 9 9 9 9 9 9 9 9 9 -|
5|-7777777777777777-6 6 6 6 6 6 6 6 6 6 6 6 6 6 6 6 -|

3|-6666666666666666--|
4|-6666666666666666--|
5|-4444444444444444--|

2|-4/5--4/5--4/5--4/5--5-4-0--4/5--4/5--4/5--4/5--7-5-4-0-|

3|-9999999999999999-11111111111111111111111111111111-|
4|-9999999999999999-9 9 9 9 9 9 9 9 9 9 9 9 9 9 9 9 -|
5|-7777777777777777-6 6 6 6 6 6 6 6 6 6 6 6 6 6 6 6 -|

2|-6--6-6-6--6-6--6-6-6-7777777777777777-9999999999-xxxxxx-|
3|-6--6-6-6--6-6--6-6-6-7777777777777777-9999999999-xxxxxx-|
4|-4--4-4-4--4-4--4-4-4-5555555555555555-7777777777-xxxxxx-|
................................................................
(G1)
3|6--6-6-6--6-6--6-6-6-9--9-9-9-12-12-12-12-|
4|x--x-x-x--x-x--x-x-x-x--x-x-x-x -x -x -x -|
5|4--4-4-4--4-4--4-4-4-7--7-7-7-11-11-11-11-|

(G2)
3|---------------------6--6-6-6-6-6-6-6-|
4|---------------------x--x-x-x-x-x-x-x-|
5|---------------------x--x-x-x-x-x-x-x-|
6|---------------------4--4-4-4-4-4-4-4-|
................................................................
VERSO 2:
(G1)
3|-6666666666666666-----------------------------------------------------------------|
4|-6666666666666666-7777777777777777-9999999999999999-x-x-x-x-x-x-x-x-x-x-x-x-x-x-x-|
5|-4444444444444444-7777777777777777-9999999999999999-x-x-6-x-x-7-x-x-9-x-x-7-x-x-6-|
6|------------------5555555555555555-7777777777777777-4-4-4-4-4-4-4-4-4-4-4-4-4-4-4-|

(G2)
3|-6-6-6-6-6-6-6-6-6-6-6-6-6-6-6-6-6-8-9-8-6-|
4|-x-x-x-x-x-x-x-x-x-x-x-x-x-x-x-x-x-x-x-x-x-|
5|-4-4-4-4-4-4-4-4-4-4-4-4-x-x-x-x-x-x-x-x-x-|
6|-------------------------5-5-5-5-5-5-5-5-5-|

3|-9-9-9-9-9-8-8-8-8-8-8-8-8--x-x-8-x-x-9-x-x-11-x-x-9-x-x-8-|
4|-x-x-x-x-x-x-x-x-x-x-x-x-x--x-x-x-x-x-x-x-x-x -x-x-x-x-x-x-|
5|-x-x-x-x-x-x-x-x-x-x-x-x-x--x-x-6-x-x-7-x-x-9 -x-x-7-x-x-6-|
6|-7-7-7-7-7-7-7-7-7-7-7-7-7---------------------------------|
................................................................
(G1)
3|-6666666666666666-----------------------------------------------------------------|
4|-6666666666666666-7777777777777777-9999999999999999-x-x-x-x-x-x-x-x-x-x-x-x-x-x-x-|
5|-4444444444444444-7777777777777777-9999999999999999-x-x-6-x-x-7-x-x-9-x-x-7-x-x-6-|
6|------------------5555555555555555-7777777777777777-4-4-4-4-4-4-4-4-4-4-4-4-4-4-4-|

(G2)
4|-----------6---------| ---|----------|
5|-4-4-4-6-4---4-4/6/4-| X3 |-4~-6~-3~-|
................................................................
/(G1)/
4|-xxxxxxxxxxxxxxxx-xxxxxxxxxxxxxxxx-|
5|-7777777777777777-9999999999999999-|
6|-5555555555555555-7777777777777777-|

(G1)y(G2)
4|-6-6-6-6-6-6-6-6-7-7-7-7-7-7-7-7-|
5|-6-6-6-6-6-6-6-6-7-7-7-7-7-7-7-7-|
6|-4-4-4-4-4-4-4-4-5-5-5-5-5-5-5-5-|
................................................................
(G1)
3|-66666666-8888-9999-44444444-8888-9999-|
4|-xxxxxxxx-xxxx-xxxx-xxxxxxxx-xxxx-xxxx-|
5|-44444444-6666-7777-22222222-6666-7777-|

(G2)
3|-666666666666666666-444444444444444444-|
4|-666666666666666666-444444444444444444-|
5|-444444444444444444-222222222222222222-|
................................................................
(G1)Y(G2)
4|-x-x-6~-|
5|-x-x-6~-|
6|-x-x-4~-|
................................................................
(G1)
3|-11-13-11-13-11/13-11-|
4|-x -x -x -x -x /x -x -|
5|-9 -11-9 -11-9 /11-9 -|

(G2)
4|-6-7-9-11-9/11-9-|
5|-6-7-9-11-9/11-9-|
6|-4-5-7-9 -7/9 -7-|
................................................................
(G1)
3|-9-----------------------6----------------------------------|
4|-x-----------------------x----------------------------------|
5|-7-----7-----7-----9-----4-----7-----7777777777777777-9-----|
6|-------5-----5-----7-----------5-----5555555555555555-7-----|

(G2)
1|-0/2/0-2/0---0-2/0-4/0---0-2/0-4/0-5/0-7/0-5/0-4/0-2/0--0-0/2/4-|

1|-0-2/0-4/0---0-2/0-4/0-5/0-2/0-4/0-5/0-7/0-5/0-9/0-7/0-5/0-4/0-2/0--0-0/2/4-|
................................................................
(G1)y(G2)(estas 2 q siguen son 3 veces)
3|-9999999999999999-66666666-8888-9999-1313131313131313-1111111111111111-|
4|-xxxxxxxxxxxxxxxx-xxxxxxxx-xxxx-xxxx-x x x x x x x x -x x x x x x x x -|
5|-7777777777777777-44444444-6666-7777-1111111111111111-9 9 9 9 9 9 9 9 -|

3|-99999999-11111111-13131313-1414141414141414-16161616-14141414-1313131313131313-14141414-13131313-11111111111111111111111111111111-|
4|-xxxxxxxx-x x x x -x x x x -x x x x x x x x -x x x x -x x x x -x x x x x x x x -x x x x -x x x x -x x x x x x x x x x x x x x x x -|
5|-77777777-9 9 9 9 -11111111-1212121212121212-14141414-12121212-1111111111111111-12121212-11111111-9999999999999999-|
................................................................
(G1)
3|6--6-6-6--6-6--6-6-6-9--9-9-9-12-12-12-12-|
4|x--x-x-x--x-x--x-x-x-x--x-x-x-x -x -x -x -|
5|4--4-4-4--4-4--4-4-4-7--7-7-7-11-11-11-11-|
                                             
(G2)
3|---------------------6--6-6-6-6-6-6-6-|
4|---------------------x--x-x-x-x-x-x-x-|
5|---------------------x--x-x-x-x-x-x-x-|
6|---------------------4--4-4-4-4-4-4-4-|





Calificar esta versión:
Aviso: Este fichero es trabajo propio de su transcriptor y representa su interpretación personal de la canción. El material contenido en esta página es para exclusivo uso privado, por lo que se prohibe su reproducción o retransmisión, así como su uso para fines comerciales.