Interlude, My Chemical Romance (tablatura)

Autor: angel_mcr | 30029 visualizaciones



Bueno esta es mi primera tranascripcion
Espero les guste y arriba mCr....!***

e|-----2--------2---|----2-------2---|----2-------2---|----2--------2---|
b|---2---2----2---2-|--2---2---2---2-|--2---2---2---2-|--2---2----2---2-|
g|------------------|----------------|----------------|-----------------|
d|-4--------4-------|0-------0-------|----------------|-----------------|
a|------------------|----------------|4--------4------|0----------------|
e|------------------|----------------|----------------|----------4------|

e|---------------|--------------|--------------|--------------|
b|---------2-----|--------2-----|--------0-----|--------0-----|
g|-----2-----2---|----2-----2---|----1-------1-|----1-------1-|
d|---2---2-----2-|--2---2-----2-|--2---2---2---|--2---2---2---|
a|-4-------------|4-------------|--------------|--------------|
e|---------------|--------------|0-------------|0-------------|

e|---------------|--------------|--------------|-------------|
b|---------2-----|--------2-----|--------2-----|--------2----|
g|-----2-------2-|----2-------2-|----4-----4---|----4-----4--|
d|---4---4---4---|--4---4---4---|--3---3-----3-|--3---3-----3|
a|---------------|--------------|4-------------|4------------|
e|-2-------------|2-------------|--------------|-------------|

e|---------------|--------------|-----------------|--------------|
b|---------2-----|--------2-----|-3/2-------0-----|--------0-----|
g|-----2-----2---|----2-----2---|-------1-------1-|----1-------1-|
d|---2---2-----2-|--2---2-----2-|-----2---2---2---|--2---2---2---|
a|-0-------------|0-------------|-----------------|--------------|
e|---------------|--------------|0----------------|0-------------|

e|---------------|--------------------|----------------|----------------|
b|---------2-----|--2---------2-------|--------2-------|------2-----2---|
g|-----2-----2---|----2---2-----2---2-|----4-----4---4-|----4-----4---4-|
d|---4---4-----4-|------4---4-----4---|--4---4-----4---|--4-----4-------|
a|---------------|--------------------|4---------------|4---------------|
e|-2-------------|2-------------------|----------------|----------------|

e|---------0h2|
b|-------2----|
g|-----4------|
d|---3--------|
a|-4----------|
e|------------|

Since we talked to her now 
come angels of the lord, 
come angels of the lord

Interludio
Los pecadores regresan al infierno ahora... 
Vamos ángeles, amor viene... 
Vamos ángeles, amor viene...





Calificar esta versión:
Aviso: Este fichero es trabajo propio de su transcriptor y representa su interpretación personal de la canción. El material contenido en esta página es para exclusivo uso privado, por lo que se prohibe su reproducción o retransmisión, así como su uso para fines comerciales.