Cubicles, My Chemical Romance (acordes)

Autor: The Pretender | 32218 visualizaciones



 Intro
E--------------------------------------------------------------|
B--------------------------------------------------------------|
G-----6-6-6-6---4-4---6-6-6-6-6-6---8-8-8-8-8-8---9-9-9--8-8-8-|
D-----x-x-x-x---x-x---x-x-x-x-x-x---x-x-x-x-x-x---x-x-x--x-x-x-|
A---0-4-4-4-4---2-2---4-4-4-4-4-4---6-6-6-6-6-6---7-7-7--6-6-6-|
D--------------------------------------------------------------|

E--------------------------------------------------------------|
B--------------------------------------------------------------|
G----6-6-6-6---4-4---6-6-6-6-6-6---4-4-4-4---5-5-5--6-6-6------|
D----x-x-x-x---x-x---x-x-x-x-x-x---x-x-x-x---x-x-x--x-x-x------|
A----4-4-4-4---2-2---4-4-4-4-4-4---2-2-2-2---3-3-3--4-4-4------|
D--------------------------------------------------------------|

Verse
E---------------------------------------------------------------
B---------------------------------------------------------------
G----6-6-6-6---4-4---6-6-6-6-6-6---8-8-8-8-8-8---9-9-9--8-8-8---
D----x-x-x-x---x-x---x-x-x-x-x-x---x-x-x-x-x-x---x-x-x--x-x-x---
A----4-4-4-4---2-2---4-4-4-4-4-4---6-6-6-6-6-6---7-7-7--6-6-6---
D---------------------------------------------------------------

E--------------------------------------------------------------|
B--------------------------------------------------------------|
G----6-6-6-6---4-4---6-6-6-6-6-6---11-11-11-11--6-6--8-8-------| [Repeat x2]
D----x-x-x-x---x-x---x-x-x-x-x-x---x--x--x--x---x-x--x-x-------|
A----4-4-4-4---2-2---4-4-4-4-4-4---9--9--9--9---4-4--6-6-------|
D--------------------------------------------------------------|

Pre-Chorus
E-------------|
B-------------|
G-------------|
D---2~---7~---|
A---2~---7~---|
D---2~---7~---|

Chorus
E---------------------------------------------------------------------|
B---------------------------------------------------------------------|
G--------------------------------------6-6--8-8-----------------------| Listen to the song and work 
D---9~--7~--3~----8~--9~--9~--12~--7~--x-x--x-x--8~--9~---9~--7~--3~--| Out when to play the notes.
A---9~--7~--3~----8~--9~--9~--12~--7~--4-4--6-6--8~--9~---9~--7~--3~--|
D---9~--7~--3~----8~--9~--9~--12~--7~------------8~--9~---9~--7~--3~--|


Slow bit
E---------------------------------------|
B---------------------------------------|
G---------------------------------------|
D---------------------------------------| [Repeat x4]
A----8-888888--444444--666666--222222---|
D---------------------------------------|
****** ****** ****** ******

After the slow bit 
E-------------------------------------------------------------------------|
B-------------------------9h10p9----------------------9h10p9/11-----------|
G---12-12-12-12-12/10--------------12-12-12-12-12/10----------------------|
D----x-x-x-x-x-x-x/x--Repeat--------x-x-x-x-x-x-x/x---repeat--------------| [repeat x4] 
A---10-10-10-10-10/8----x4---------10-10-10-10-10/8-----x4----------------|
D------------------before-high-part-----------------before-high-part------|

Outro[Guitar 1]
E-------------------------------------------------------------------------| |------------|
B---------------------------9h10p9-8--------------------------------------| |------------|
G-------------------------------------------------------------------------| |------------|
D---6666-6~--44-4~--6666-6~-----------6666-6~--44-4~---6666-6~-66-6--66-6-| [repeat x4] End On |--22-22--2~-|
A---6666-6~--44-4~--6666-6~-----------6666-6~--44-4~---6666-6~-66-6--66-6-| |--22-22--2~-| 
D---6666-6~--44-4~--6666-6~-----------6666-6~--44-4~---6666-6~-66-6--66-6-| |--22-22--2~-|
**** ** **** **** ** **** ** **

Outro[guitar 2] Come after second time of the Above
E-----12----12----11---11---|
B--------10----10----9----9-|
G---------------------------|
D---------------------------| [Repeat x8]
A---------------------------|
D---------------------------|
 
 
 
 
 





Calificar esta versión:
Aviso: Este fichero es trabajo propio de su transcriptor y representa su interpretación personal de la canción. El material contenido en esta página es para exclusivo uso privado, por lo que se prohibe su reproducción o retransmisión, así como su uso para fines comerciales.