Blood, My Chemical Romance (tablatura)

Autor: juan-punk | 27827 visualizaciones



[1] - Guitarra uno (piano mano derecha)
[2] - Guitarra dos (piano mano izquierda)

(n) - nota fantasma
 ^  - upstroke


      Emaj                                          F#min
[1]
e|:|--------------|---------------|--------------|-------------|
B|:|--0--0--0--0--|--0------------|--0--0--0--0--|--2--2--2--2-|
G|:|--1--1--1--1--|--1------------|--1--1--1--1--|--2--2--2--2-|
D|:|--2--2--2--2--|--2------------|--2--2--2--2--|--4--4--4--4-|
A|:|--------------|---------------|--------------|-------------|
E|:|--------------|---------------|--------------|-------------|
 | |
[2]|
e|:|--------------|---------------|--------------|-------------|
B|:|--------------|---------------|--------------|--7------7---|
G|:|--------------|---------------|---------4----|-------------|
D|:|--------------|--2---------1--|--2-----------|--4----------|
A|:|--------------|------2--4-----|---------2----|---------6---|
E|:|--------------|--0------------|--0-----------|-------------|

                 "Well they en - courage your complete...



      Bmaj           E  B  Emaj    C#min          F#min
[1]
e|:|--------------|---------------|--------------|-------------|
B|:|--------------|---------0-----|--------------|--2--2--2--2-|
G|:|--4--4--4--4--|--1--4---1-----|--1--1--1--1--|--2--2--2--2-|
D|:|--1--1--1--1--|--2--1---2-----|--2--2--2--2--|--4--4--4--4-|
A|:|--2--2--2--2--|--2--2---2-----|--4--4--4--4--|-------------|
E|:|--------------|---------0-----|--------------|-------------|
 | |
[2]|
e|:|--------------|---------------|--------------|-------------|
B|:|--4----4------|---------------|--------------|-------------|
G|:|--------------|-----4---------|--6-----6-----|-------------|
D|:|--1----1------|--2------2-----|--------------|--4-----4----|
A|:|--------------|-----2---------|--4-----4-----|-------------|
E|:|--------------|--0------0-----|--------------|--2-----2----|

     "Bring you roses...            "I can't control myself...



      Bmaj                           Emaj         F#min
[1]
e|:|--------------|---------------|--------------|-------------|
B|:|--------------|---------------|--0--0--0--0--|--2--2--2--2-|
G|:|--4--4--4--4--|---4-----------|--1--1--1--1--|--2--2--2--2-|
D|:|--1--1--1--1--|---1-----------|--2--2--2--2--|--4--4--4--4-|
A|:|--2--2--2--2--|---2-----------|--2--2--2--2--|--4--4--4--4-|
E|:|--------------|---------------|--------------|-------------|
 | |
[2]|
e|:|--------------|---------------|--------------|-------------|
B|:|--------------|---4-----------|--------------|--7-----7----|
G|:|--------------|-----------4---|--------4-----|-------------|
D|:|--------------|---1-----------|--2-----------|--4----------|
A|:|--------------|-----------2---|--------2-----|--------6----|
E|:|--------------|---------------|--0-----------|-------------|

     "And they love me for ...    "So bring them blood...



      Bmaj           Emaj                          F#min
[1]
e|:|--------------|--------------|--------------|------------0-|
B|:|--4--4--4--4--|--0--0--0--0--|--0--0--0--0--|--2----(2)--0-|
G|:|--4--4--4--4--|--1--1--1--1--|--1--1--1--1--|--2----(2)--1-|
D|:|--1--1--1--1--|--2--2--2--2--|--2--2--2--2--|--4----(4)----|
A|:|--2--2--2--2--|--2--2--2--2--|--2--2--2--2--|--4----(4)----|
E|:|--------------|--------------|--------------|--------------|
 | |
[2]|
e|:|--------------|--------------|--------------|--------------|
B|:|--4-----------|-----------4--|--------------|------------5-|
G|:|--------------|-----4--6-----|--------4-----|--------------|
D|:|--1-----4-----|--2--------1--|--2-----------|--4----(4)--2-|
A|:|--------------|-----2--4-----|--------2-----|--------------|
E|:|--------2-----|--0-----------|--0-----------|--2----(2)----|

   "All that they can drink...    "Bring them blood, blood...



     Bmajnbb          E  B  Emaj    Emaj	          F#min
[1]
e|:|--------------|---4--7--12---|--------------|--------------|
B|:|--4-----------|---0--4--12---|--0--0--0--0--|--2--2--2--2--|
G|:|--4-----------|---1--4--13---|--1--1--1--1--|--2--2--2--2--|
D|:|--1-----------|--------------|--2--2--2--2--|--4--4--4--4--|
A|:|--2-----------|--------------|--------------|--------------|
E|:|--------------|--------------|--------------|--------------|
 | |
[2]|
e|:|--------------|--------------|--------------|--------------|
B|:|--------------|----------5---|--------------|--7-----7-----|
G|:|--4-----------|-----4--------|--------4-----|--------------|
D|:|--------------|--2------2----|--2-----------|--4-----------|
A|:|--2-----------|-----2--------|--------2-----|--------6-----|
E|:|--------------|--0-----------|--0-----------|--------------|

     "Grab a glass because...            "A celebrated man amongst...



      Bma            E  B  Emaj     C#min          F#min
[1]
e|:|--------------|--------------|--------------|--------------|
B|:|--------------|--------0-----|--------------|--2--2--2--2--|
G|:|--4--4--4--4--|--1--4--1-----|--1--1--1--1--|--2--2--2--2--|
D|:|--1--1--1--1--|--2--1--2-----|--2--2--2--2--|--4--4--4--4--|
A|:|--2--2--2--2--|--2--2--2-----|--4--4--4--4--|--------------|
E|:|--------------|--------0-----|--------------|--------------|
 | |
[2]|
e|:|--------------|--------------|--------------|--------------|
B|:|--4-----4-----|--------------|--------------|--------------|
G|:|--------------|-----4--------|--6-----6-----|--------------|
D|:|--1-----1-----|--2-----2-----|--------------|-4-----4------|
A|:|--------------|-----2--------|--4-----4-----|--------------|
E|:|--------------|--0-----0-----|--------------|-2-----2------|

     "Fix me proper with...       "The doctors and the nurses...



      Bmaj
[1]
e|:|--------------|--^7----11----|-(11)-----(11)---|
B|:|--^4----------|--^7----12----|-(12)-----(12)---|
G|:|--^4----------|--^8----11----|-(11)-----(11)---|
D|:|--^1----------|--^9----------|-----------------|
A|:|--^2----------|--------------|-----------------|
E|:|--------------|--------------|-----------------|
 | |
[2]|
e|:|--------------|--------------|--------------|
B|:|--4-----------|--------------|--------------|
G|:|--------------|--8-----------|--(8)-----4---|
D|:|--1-----------|--------------|--------------|
A|:|--------------|--6-----------|--(6)-----2---|
E|:|--------------|--------------|--------------|

    "But its really quite alarming...



      Emaj	     F#min	    Bmaj           Emaj
[1]
e|:|--------------|--------------|--------------|--------------|
B|:|--0--0--0--0--|--2--2--2--2--|--4--4--4--4--|--0--0--0--0--|
G|:|--1--1--1--1--|--2--2--2--2--|--4--4--4--4--|--1--1--1--1--|
D|:|--2--2--2--2--|--4--4--4--4--|--1--1--1--1--|--2--2--2--2--|
A|:|--2--2--2--2--|--4--4--4--4--|--2--2--2--2--|--2--2--2--2--|
E|:|--------------|--------------|--------------|--------------|
 | 
[2]|
e|:|--------------|--------------|--------------|--------------|
B|:|--------------|--7-----7-----|--4-----------|-----------4--|
G|:|--------4-----|--------------|--------------|-----4--6-----|
D|:|--2-----------|--4-----------|--1-----4-----|--2--------1--|
A|:|--------2-----|--------6-----|--------------|-----2--4-----|
E|:|--0-----------|--------------|--------2-----|--0-----------|
     
    "Blood, blood, gallons...    "All that you can drink...



                     F#min
[1]
e|:|--------------|-------2------|--(2)---(2)---|--(2)---------|
B|:|--0--0--0--0--|-^2----2------|--(2)---(2)---|--(2)---------|
G|:|--1--1--1--1--|-^2---(2)-----|--(2)---(2)---|--(2)---------|
D|:|--2--2--2--2--|-^4---(4)-----|--(4)---(4)---|--(4)---------|
A|:|--2--2--2--2--|-^4---(4)-----|--(4)---(4)---|--(4)---------|
E|:|--------------|--------------|--------------|--------------|
 | |
[2]|
e|:|--------------|--------------|--------------|--------------|
B|:|--------------|--------------|--------------|--------------|
G|:|--------4-----|--6-----------|--(6)---------|--(6)---------|
D|:|--2-----------|--------------|--------------|--------------|
A|:|--------2-----|--4-----------|--(4)---------|--(4)---------|
E|:|--0-----------|--------------|--------------|--------------|

     "Blood, blood, blood...                     "I'm the...



      Bmaj              E   B   Emaj
[1]
e|:|-----------------|-----------------||
B|:|--4---4---4---4--|--0---4----------||
G|:|--4---4---4---4--|--1---4---9------||
D|:|--1---1---1---1--|--2---1---9------||
A|:|--2---2---2---2--|--2---2---7------||
E|:|-----------------|----------0------||
 | |
[2]|
e|:|-----------------|-----------------||
B|:|--4-------4------|--5--------------||
G|:|-----------------|------4----------||
D|:|--1-------1------|--2-------2------||
A|:|-----------------|------2----------||
E|:|-----------------|----------0------||

   "Kind of human wreakage that you love"





Comentarios del colaborador: ♫Dejen comentarios♫...Esper0 que les guste...mi correo [email protected]

Calificar esta versión:
Aviso: Este fichero es trabajo propio de su transcriptor y representa su interpretación personal de la canción. El material contenido en esta página es para exclusivo uso privado, por lo que se prohibe su reproducción o retransmisión, así como su uso para fines comerciales.