Pokemon Gameboy, Música De Videojuegos (tablatura)

Autor: Anónimo | 31176 visualizaciones



Esta melodia empiesa cuando entras en alguna cuava
De los juegos pokemon green, red o blue para gameboy.

E/-7-6-------9-7-6----12-11----------14-13-12-
B/-----7-5-9----------------12-10-14----------
G/--------------------------------------------
D/--------------------------------------------
A/--------------------------------------------
E/--------------------------------------------

E/-7-6-------9/12-11-----------14-13-12-------
B/-----8-6-9----------12-10-14----------------
G/--------------------------------------------
D/--------------------------------------------
A/--------------------------------------------
E/--------------------------------------------





Calificar esta versión:
Aviso: Este fichero es trabajo propio de su transcriptor y representa su interpretación personal de la canción. El material contenido en esta página es para exclusivo uso privado, por lo que se prohibe su reproducción o retransmisión, así como su uso para fines comerciales.