Metal Slug X - Mission 1, Música De Videojuegos (tablatura)

Autor: Anónimo | 45704 visualizaciones



Bueno damas y caballeros siempre busque este tema para tocarlo, pero no
esta por ningun lado asi que lo saque yo mismo. Es un temon que al oirlo
daban ganas de matar y matar XD. Este tema tambien lo encontramos en el
Metal Slug 2...Este tema usa una escala arabe.
Y sin mas aqui ta:

Partes callendo con tu paracaidas y MISSION 1 STAR!!!!

e|-------------------------|         e|--22v~~~|
B|-------------------------|         Este suena despues
G|--3-3--5-------3-3--5----|         hacer el primer riff,
D|--3-3--5-------3-3--5----| X4      se debe utilizar vibrato
A|-------------------------|
E|-3-----------3-----------|


|----------------------------------------|
|----------------------------------------|
|----------------------------------------|
|-5-4---5p4---5--7--4-5--4---------------| x2
|----6---------------------6-5~--6-8-5~--|
|----------------------------------------|

|---------------------------------------------------9~-|
|-8-7--7-8-10--11--10-8-7----7-8--7-8-10--11---10-8----|
|------------------------------------------------------|
|------------------------------------------------------|
|------------------------------------------------------|
|------------------------------------------------------|

Aqui ya debemos ser mas rapidos de dedos y es un poco mas complejo.:

|-18-20-20b(22)---20--18--17----18-17-15-14-17-15-14---15-14-------|
|----------------------------20---------------------16------16-15--|
|------------------------------------------------------------------|
|------------------------------------------------------------------|
|------------------------------------------------------------------|
|------------------------------------------------------------------|

|-14---------------------------------------------------------------|
|----16-15-13-15-13-------13--------------------11-----------------|
|-------------------15-14---15-14-12-15-14-12-11---14-11--------11-|
|---------------------------------------------------------13-13----|
|------------------------------------------------------------------|
|------------------------------------------------------------------|

Despues viene un barrido de subida que me la gano y sigue esto

|-17--------------------------------15--14-15-17--18--17---21-|
|--------------------------------------------------------20---|
|-------------------------------------------------------------|
|------17-16--17-19---20--19-17-16----------------------------|
|-------------------------------------------------------------|
|-------------------------------------------------------------|

|----------------------------------|
|-------5------------5-------------|
|-5-8-7---8----5-8-7---8-----------|
|----------------------------------|X2
|-----------4------------4---------|
|----------------------------------|

|---6-5-8-6-----6-5-8-6------------------|
|-8-----------8--------------------------|
|-----------6-----------6-------5---6----|
|--------------------------5-8-7--8------|
|----------------------------------------|
|----------------------------------------|

                      MISSION 1 COMPLETE!!!

Bueno es un tema que no deberian tocarlo los novatos en guitarra, por
el ultra solo agudo que tiene pero nadien dice que no pueden sacar las
demas partes.
Si pueden sacar el barrido que me falto me envian un correo
[email protected], o en caso de dudas bueno eso es todo





Calificar esta versión:
Aviso: Este fichero es trabajo propio de su transcriptor y representa su interpretación personal de la canción. El material contenido en esta página es para exclusivo uso privado, por lo que se prohibe su reproducción o retransmisión, así como su uso para fines comerciales.