Metal Gear Solid, Música De Videojuegos (tablatura)

Autor: Anónimo | 32736 visualizaciones



|-------------------------------------------------------------------|
|-------------------------------------------------10----------------|
|---9--7------------7--9-----9--7-------7---9---------12--9---------|
|----------10-------------7---------10------------------------------|
|-------------------------------------------------------------------|
|-------------------------------------------------------------------|

|-------------------------------------------------------------------|
|----------------10-----13-----12--13--15--13--10---------10--------|
|-------7-----9---------------------------------------12------------|
|---10--------------------------------------------------------------|
|-------------------------------------------------------------------|
|-------------------------------------------------------------------|

|-------------------------------------------------------------------|
|---12--13--12--10------10------------------------------------------|
|-------------------12---------11--9---------9--11-----11--9--------|
|-------------------------------------12------------9---------------|
|-------------------------------------------------------------------|
|-------------------------------------------------------------------|

|-------------------------------------------------------------------|
|-----------------12-------------------------12--15-----14--15--17--|
|-------9--11---------14--11-------9-----11-------------------------|
|---12-------------------------12-----------------------------------|
|-------------------------------------------------------------------|
|-------------------------------------------------------------------|

|-------------------------------------------------------------------|
|---15--12--------12--14--15--14--12------12------------------------|
|-------------14----------------------14----------------------------|
|-------------------------------------------------------------------|
|-------------------------------------------------------------------|
|-------------------------------------------------------------------|





Calificar esta versión:
Aviso: Este fichero es trabajo propio de su transcriptor y representa su interpretación personal de la canción. El material contenido en esta página es para exclusivo uso privado, por lo que se prohibe su reproducción o retransmisión, así como su uso para fines comerciales.