Melancholy Requiem - Silent Hill, Música De Videojuegos (tablatura)

Autor: Anónimo | 35204 visualizaciones



 Este es el tab. de uno de los SoundTrack del juego Silent Hill
 espero lo disfruten.. esta 100% correcto


 e:-------------------------------
 B:-------12-10-5--------12-10-5-- (INTRO)
 G:-9-9------------9-9------------
 D:-------------------------------
 A:-------------------------------
 E:-------------------------------


 --

 e:--------------------------
 B:-6-4-3--------------------
 G:-------3-3-5-7------------
 D:--------------------------
 A:--------------------------
 E:--------------------------

se repiten varias veces...

en fondo

G: -5-5-5-6-5-5-5-4





Calificar esta versión:
Aviso: Este fichero es trabajo propio de su transcriptor y representa su interpretación personal de la canción. El material contenido en esta página es para exclusivo uso privado, por lo que se prohibe su reproducción o retransmisión, así como su uso para fines comerciales.