Mega Man X - Boomer Kuwanger, Música De Videojuegos (tablatura)

Autor: Anónimo | 17040 visualizaciones



este trabajo lo hice un dia que amaneci con nada que hacer, esta cancion es 
una cancion de un juego muy famoso, es de Megaman X, y el nombre lo tienen 
arriba... les aconsejo que para que agarren el tiempo de la cancion la bajen 
de internet.....

|----------------------------------------------------------------------------
|----------------------------------------------------------------------------
|----------------------------------------------------------------------------
|----------------5-4------------------5-4—7----------------------------------
|-7-7---5---7-7------5---7-7--5---7-7----------------------------------------
|----------------------------------------------------------------------------


|-----7---5-----------------5-7---5-7-9-10-12-------12-8----10-----11-11-----
|--5---------8-7-7-8-5--7-8-----8-------------10-12------10----12--------12--
|----------------------------------------------------------------------------
|----------------------------------------------------------------------------
|----------------------------------------------------------------------------
|----------------------------------------------------------------------------

|-9-11-12-14-15-14-15-12-17-17-17-12-12-17-15-14-15-17-20-20-20-19-----------
|----------------------------------------------------------------------------
|----------------------------------------------------------------------------
|----------------------------------------------------------------------------
|----------------------------------------------------------------------------
|----------------------------------------------------------------------------

|-15-14-15-17-17-15-14-14-15-14-10-10-12-14-14-15-12-12-15-14-10-12-14-------
|----------------------------------------------------------------------------
|----------------------------------------------------------------------------
|----------------------------------------------------------------------------
|----------------------------------------------------------------------------
|----------------------------------------------------------------------------

15-14-15-17-17-15-14-15-19-19-17-14-14-12-10-14-15-12-12-15-14-10-12-14-14-12 
|----------------------------------------------------------------------------
|----------------------------------------------------------------------------
|----------------------------------------------------------------------------
|----------------------------------------------------------------------------
|----------------------------------------------------------------------------





Calificar esta versión:
Aviso: Este fichero es trabajo propio de su transcriptor y representa su interpretación personal de la canción. El material contenido en esta página es para exclusivo uso privado, por lo que se prohibe su reproducción o retransmisión, así como su uso para fines comerciales.