Mario Bros - Game Over, Música De Videojuegos (tablatura)

Autor: Anónimo | 44258 visualizaciones



e |-8---------5-7-5--4-6-4---3-------|
B |----8------6------6-------5-3-5---|
G |-------9--------------------------|
D |-5--------------------------------|
A |----7------3------4-------3-------|
E |-------8--------------------------|


O MÁS SENCILLA:

e |-8---------5-7-5--4-6-4---3-------|
B |----8-----------------------------|
G |-------9--------------------------|
D |----------------------------------|
A |----------------------------------|
E |----------------------------------|





Calificar esta versión:
Aviso: Este fichero es trabajo propio de su transcriptor y representa su interpretación personal de la canción. El material contenido en esta página es para exclusivo uso privado, por lo que se prohibe su reproducción o retransmisión, así como su uso para fines comerciales.