Mario Bros - Estrellita, Música De Videojuegos (tablatura)

Autor: Anónimo | 30606 visualizaciones



ESTA ES LA PARTE DONDE AGARRAS LA ESTRELLITA EN EL MARIO BROS.

e-------------------------------
B-13-13-13----13-13----13-13----
G-10-10-10----10-10----10-10----
D----------12-------12----------
A-------------------------------
E-------------------------------

e-------------------------------
B-12-12-12----12-12----12-12----
G--9--9--9-----9--9-----9--9----
D----------10-------10----------
A-------------------------------
E-------------------------------

by YODA





Calificar esta versión:
Aviso: Este fichero es trabajo propio de su transcriptor y representa su interpretación personal de la canción. El material contenido en esta página es para exclusivo uso privado, por lo que se prohibe su reproducción o retransmisión, así como su uso para fines comerciales.