Legend Of Zelda - Gerudo Valey, Música De Videojuegos (tablatura)

Autor: Anónimo | 34390 visualizaciones



Guerudo Valey song.

El intro es así:


e|------------------5----4-7-9--------|
b|---------------7-----6--------------|
g|----------4-7-----------------------|
D|--------6---------------------------|
A|------4-----------------------------|
E|------------------------------------|

F#m - D - E - C#7

Se hace este circulo una vez, y luego del primero
se toca la melodía y el circulo sigue hasta el final de la cancion:



Y la melodía:


F#m                D                    E                 C#7

---2-4-5-----2-4-5-----2-4-5-----2-4-5-----0-2-4-----0-2-4----2-4-2-1|
-2---------2---------3---------3---------0---------0-----------------|
---------------------------------------------------------------------|
---------------------------------------------------------------------|
---------------------------------------------------------------------|
---------------------------------------------------------------------|


--2-4-5-----2-4-5-----2-4-5-----2-4-5-----0-2-4------0-2-4----5-7-5-4|
2---------2---------3---------3---------0----------0-----------------|
---------------------------------------------------------------------|
---------------------------------------------------------------------|
---------------------------------------------------------------------|
---------------------------------------------------------------------|

Y luego:


----------------------------------------------------|
--------10----9------7----------5----------5h7p5----|
--6-------------------------6--------------------7--|
----------------------------------------------------|
----------------------------------------------------|
----------------------------------------------------|

--------4-------------------------------------------|
---------------7-----5------------------------5-----|
--4-------------------------7---6----------7----7-6-|
----------------------------------------------------|
----------------------------------------------------|
----------------------------------------------------|






----------------------------------------------------|
--------10----9------7----------5----------5h7p5----|
--6-------------------------6--------------------7--|
----------------------------------------------------|
----------------------------------------------------|
----------------------------------------------------|


--------------------------------------------|
--0---0-----------7---5-----------3---2-----|
--2---4-----------4---4-----------1---1-----|
--------------------------------------------|
--------------------------------------------|
--------------------------------------------|



-5-4-5-4---------------------4-2-4---------------------|
-----------5-----------------------5-----------5-------|
---------6------7-6-7----------------7-6-----7---7-6---|
-------------------------------------------------------|
-------------------------------------------------------|
-------------------------------------------------------|

----------------------------------------------|
----------------------------------------------|
-------6---------6------------7--------7------|
-4-6-7-----4-6-7--------4-6-7----4-6-7--------|
----------------------------------------------|
----------------------------------------------|

------------------4---2---------------------------|
--3---0-----------5---3-----------0---2-----------|
--2---4---------------------------1---1-----------|
--------------------------------------------------|
--------------------------------------------------|
--------------------------------------------------|


-------------------------------------|
-10-9-10-------9-10-12-10-9-10-9-10--|
------------11-----------------------|
-------------------------------------|
-------------------------------------|
-------------------------------------|

-------------------------------------|
-9----9--------9-10-9----9-----------|
---11-----9-11--------11---11-10-----|
-------------------------------------|
-------------------------------------|
-------------------------------------|

-------------------------------------|
-10-9-10-------9-10-12-10-9-10-9-10--|
------------11-----------------------|
-------------------------------------|
-------------------------------------|
-------------------------------------|


-------------------9-10-12-9----9-|
-12-10-12--9-10-12-----------12---|
----------------------------------|
----------------------------------|
----------------------------------|
----------------------------------|



Este es el final:
F#m                      D
-------------------------------------------|
-------------------------------------------|
---2-1-2-----2-1-2-------2-1-2----2-1-2----|
-4---------4-----------0--------0----------|
-------------------------------------------|
-------------------------------------------|

 E                      C#7
-----------------------------------------|
----------------------3-5-3-2------------|
----4-3-4----4-3-4-----------------------|
--2--------2-----------------------------|
-----------------------------------------|
-----------------------------------------|

Luego tocas toda la melodía otra vez  y la cancion termina.





Calificar esta versión:
Aviso: Este fichero es trabajo propio de su transcriptor y representa su interpretación personal de la canción. El material contenido en esta página es para exclusivo uso privado, por lo que se prohibe su reproducción o retransmisión, así como su uso para fines comerciales.