Recuérdame (coco), Música De Películas (tablatura)

Autor: origato3005 | 509 visualizaciones

e|----1--------------------------0-0------0
B|-0---3-----------1-1-3-3-------3-----
G|--------0-0--------------------------0---
A|-------------3-3--------------------------

e|-1-0-0-----------5-5-3-3-0-0--3-1-1-0-0----3-3-1-1-
B|---------3-3-1-1-----------------1--------------0-2----------

e|-0-0--0----------------------0-------------------------0-0-1-
B|------1--3-3-1-1-0-1--3--1------------1-1-3-3----------
G|-----------------------------------0-0----------------------------
A|-----------------------------------------3-3----------------------

e|-0--0-0-1-1-0-0-1-3---8-8-7-7-5-5-3-3-0-0
B|----------------------------1------------------------------

e|---------------------------4-4-8-10----------
B|-3-1-0-1---1-1-4-4--------------3-1-0-1

Comentarios del colaborador: Esta es mi primer publicación. Espero que les guste

Calificar esta versión:
Aviso: Este fichero es trabajo propio de su transcriptor y representa su interpretación personal de la canción. El material contenido en esta página es para exclusivo uso privado, por lo que se prohibe su reproducción o retransmisión, así como su uso para fines comerciales.