Dead In Hollywood, Murderdolls (tablatura)

Autor: diego95metal | 35280 visualizaciones



---------------------------------
---------------------------------
---------------------------------
-2-2-3-2-------------------------
-2-2-3-2-------------------------
-0-0-1-0------------------------- x 8

 Hey frankenstien, whats on your mind,
Hey dracula, i heard you......suck.....

---------------------------------  
---------------------------------
---------------------------------
-2-2-3-2--2-2--------------------
-2-2-3-2--2-2--------------------
-0-0-1-0--0-0-------------------- x8

---------------------------------
---------------------------------
---------------------------------
-5-5-5-5-5-5-5-5-4-4-4-4-3-3-3-3-
-5-5-5-5-5-5-5-5-4-4-4-4-3-3-3-3-
-3-3-3-3-3-3-3-3-2-2-2-2-1-1-1-1-

---------------------------------
---------------------------------
---------------------------------
-2-2-3-2--2-2--------------------
-2-2-3-2--2-2--------------------
-0-0-1-0--0-0-------------------- x2

---------------------------------
---------------------------------
---------------------------------
-5-5-5-5-5-5-5-5-4-4-4-4-3-3-3-3-
-5-5-5-5-5-5-5-5-4-4-4-4-3-3-3-3-
-3-3-3-3-3-3-3-3-2-2-2-2-1-1-1-1-

---------------------------------
---------------------------------
---------------------------------
-2-2-3-2-------------------------
-2-2-3-2-------------------------
-0-0-1-0------------------------- x 8

---------------------------------
---------------------------------
---------------------------------
-2-2-3-2--2-2--------------------
-2-2-3-2--2-2--------------------
-0-0-1-0--0-0-------------------- x8

---------------------------------
---------------------------------
---------------------------------
-5-5-5-5-5-5-5-5-4-4-4-4-3-3-3-3-
-5-5-5-5-5-5-5-5-4-4-4-4-3-3-3-3-
-3-3-3-3-3-3-3-3-2-2-2-2-1-1-1-1-

---------------------------------
---------------------------------
---------------------------------
-2-2-3-2--2-2--------------------
-2-2-3-2--2-2--------------------
-0-0-1-0--0-0-------------------- x2

---------------------------------
---------------------------------
---------------------------------
-5-5-5-5-5-5-5-5-4-4-4-4-3-3-3-3-
-5-5-5-5-5-5-5-5-4-4-4-4-3-3-3-3-
-3-3-3-3-3-3-3-3-2-2-2-2-1-1-1-1-

Chorus
---------------------
--------------------
--------------------
-2---10---5-5-5-5-7-8-
-2---10---5-5-5-5-7-8-
-0-0-8-0--3-3-3-3-5-6
  pm   pm

---------------------
---------------------
-9-0---0-11-11-11-10-
-9-0-9-0-11-11-11-10-
-7-0-9-0-9--9--9--8--
-----7---------------

(Note the open string fluffs during the second chours are hard to hear plus im not to sure
about the last two chords)

---------------------------------
---------------------------------
---------------------------------
-2-2-3-2-----2-2-3-2--------------
-2-2-3-2-----2-2-3-2--------------
-0-0-1-0-----0-0-1-0--------------

Solo (by tripp, havent heard a glam solo in a while

|--------------------------------------------------------------------------------------------------|
|--------------------------------------------------------------------------------------------------|
|-7b-7b-7b-7b-7b-7b-6b-6b-6b-5b-5b-5b--------------------------------------------------------------|
|---------------------------------------8b---5h7p5-------------------------------------------------|* = AH
|----------------------------------------------------7--*5-*4-*3-----------------------------------|
|-----------------------------------------------------------------*6b--*3----/7-9-8-10-9-11-10-12--|
								       ~~    PM...................


|------------------------------------------------------|
|------------------------------------------------------|
|-------------------14b--------------------------------|
|-------------12-14-----------14-12-14-----------------|
|-------12-14---------------------------12-14----------|
|-12-14------------------------------------------------|

(joey plays pre chorus bit)

then two choruses and there you go, i think the solo maybe played lower down the fret board,
and on the g and b string, so if i can figure that out i will, but heres a guide for u

Solo:
e|------------------------------------------------------------------------------------------------
B|------------------------------------------------------------------------------------------------
G|--7b-7b-7b-7b-7b-7b-6b-6b-6b-5b-4b-----------------------------------------------
D|--------------------------------------------------7p5-----------------------------------------
A|--------------------------------------------------------7-7--5--------------------------------
E|------------------------------------------------------------------7--6-2-3-5-----------------

e|-----------------------------------------------------------------------------5/7--5h7p5-------------------------------------------
B|--------------------------------------------------------5---5-8-5-8-------------------------5h8p5--5---------------------------
G|--------------------------------------4---4-7-4-7---7--------------------------------------------7--7-4h7p4------------------
D|-----------------5--5-7-5-7-----7---------------------------------------------------------------------------------7-5-5---------
A|----5--5-7-5-7---7----------------------------------------------------------------------------------------------------------------
E|-3/5/7-5-7-7----------------------------------------------------------------------------------------------------------------------

e|-------------------------------------------------5/7-10/7---7-10p7-10p7---7-10p7-10p7---7---------------------------------
B|-------------------------------------5-5-8-5-8------------10---------------10-----------------10----8b-8b-8b-8b-7b-6b------
G|-----------------4-4-7-4-7--7---------------------------------------------------------------------------------------------------------
D|--5/75-7-5-7--7----------------------------------------------------------------------------------------------------------------------
A|-------------------------------------------------------------------------------------------------------------------------------------------
E|-------------------------------------------------------------------------------------------------------------------------------------------



	





Calificar esta versión:
Aviso: Este fichero es trabajo propio de su transcriptor y representa su interpretación personal de la canción. El material contenido en esta página es para exclusivo uso privado, por lo que se prohibe su reproducción o retransmisión, así como su uso para fines comerciales.