Libra, Mucc (tablatura)

Autor: Xx_thevampiremurder_xX | 42714 visualizaciones

aqui tienen el link para escuchar la cancion:
http://www.youtube.com/watch?v=9-UN2QjEpEU

100% correta!

Intro:
 

guitarra 1:

e|-----------------------------------------------------|
B|-----------------------------------------------------|
G|-----------------------------------------------------| x2
D|-----------------------------------------------------|
A|----------------------6h7p6--------------------------|
E|--6h7--0-0--6-7--0-0----------6h7--0-0--6-7--0-3-2---|


guitarra 2:
 
empieza cuando la bateria suena la bateria

e|-----------------------------------------------------|
B|-----------------------------------------------------|
G|-----------------------------------------------------|
D|---9999999-5-4--9999999-5-4--------------------------|
A|---9999999-5-4--9999999-5-4--------------------------|
E|---7777777-3-2--7777777-3-2--------------------------|


verso:

guitarra 1: 
  
e|-----------------------------------|
B|--7--7--7--7---7--7--7--7----------|
G|--7--6--7--6---7--6--7--6----------|
D|--9------------9-------------------|
A|-----------------------------------|
E|-----------------------------------|



guitarra 2:

empieza cuando la guitarra dos a echo ese riff 2 veces.

e|--------------------------------------------------------------
B|--------------------------------------------------------------
G|--11--12-11-9-----11----11----------------------9--11---------
D|---------------12----11-------9-8-9-11-12-11-12-------11-12-11
A|--------------------------------------------------------------
E|--------------------------------------------------------------

otra vez la introduccion
guitarra 1:

e|-----------------------------------------------------|
B|-----------------------------------------------------|
G|-----------------------------------------------------| x2
D|-----------------------------------------------------|
A|----------------------6h7p6--------------------------|
E|--6h7--0-0--6-7--0-0----------6h7--0-0--6-7--0-3-2---|

guitarra 2:

e|-----------------------------------------------------|
B|-----------------------------------------------------|
G|-----------------------------------------------------|
D|---9999999-5-4--9999999-5-4--------------------------|
A|---9999999-5-4--9999999-5-4--------------------------|
E|---7777777-3-2--7777777-3-2--------------------------|


y el verso
guitarra 1: 
  
e|-----------------------------------|
B|--7--7--7--7---7--7--7--7----------|
G|--7--6--7--6---7--6--7--6----------|
D|--9------------9-------------------|
A|-----------------------------------|
E|-----------------------------------|



guitarra 2:


e|--------------------------------------------------------------
B|--------------------------------------------------------------
G|--11--12-11-9-----11----11----------------------9--11---------
D|---------------12----11-------9-8-9-11-12-11-12-------11-12-11
A|--------------------------------------------------------------
E|--------------------------------------------------------------


estribillo (lo hacen ambas guitarras)


e|-----------------------------------|
B|-----------------------------------|
G|---77--77--44----------------------|
D|---77--77--44--77--55--77----------| x2
A|---55--44--24--77--55--77----------|
E|---------------55--33--55----------|

de nuevo el verso
guitarra 1: 
  
e|-----------------------------------|
B|--7--7--7--7---7--7--7--7----------|
G|--7--6--7--6---7--6--7--6----------|
D|--9------------9-------------------|
A|-----------------------------------|
E|-----------------------------------|



guitarra 2:


e|--------------------------------------------------------------
B|--------------------------------------------------------------
G|--11--12-11-9-----11----11----------------------9--11---------
D|---------------12----11-------9-8-9-11-12-11-12-------11-12-11
A|--------------------------------------------------------------
E|--------------------------------------------------------------

puente:

e|------------------------------------------|
B|------------------------------------------|
G|-7--6--9--7----11--9---12---11------------|x2
D|------------------------------------------|
A|------------------------------------------|
E|------------------------------------------|


despues suena solo el verso de la segunda guitarra:
e|--------------------------------------------------------------
B|--------------------------------------------------------------
G|--11--12-11-9-----11----11----------------------9--11---------
D|---------------12----11-------9-8-9-11-12-11-12-------11-12-11
A|--------------------------------------------------------------
E|--------------------------------------------------------------

y de nuevo el estribillo

e|-----------------------------------|
B|-----------------------------------|
G|---77--77--44----------------------|
D|---77--77--44--77--55--77----------| x2
A|---55--44--24--77--55--77----------|
E|---------------55--33--55----------|

y termina con este solo

e|-------------------------------------------------------------
B|---7-8-7--------------7--8--7-8-10---------------------------
G|---------9--7--6-7-9----------------9--10--------------------
D|-------------------------------------------------------------
A|-------------------------------------------------------------
E|-------------------------------------------------------------


es muy facil solo tiene unos cuantos riffs, y ademas esta es una de mis canciones preferidas de mucc xD, asi que la disfruten!


moka-san
Calificar esta versión:
Aviso: Este fichero es trabajo propio de su transcriptor y representa su interpretación personal de la canción. El material contenido en esta página es para exclusivo uso privado, por lo que se prohibe su reproducción o retransmisión, así como su uso para fines comerciales.