Greensleeves, Mozart (acordes)

Autor: luidzoom | 22915 visualizaciones

dola


-----------|---3--3|
------1--1-|---0--0|
------2--2-|---0--0|
------2--2-|---0--0|
-----------|---2--2|
-----------|---3--3|

segunda vuelta

--------|------|
--1--1--|------|
--2--2--|------|
--2--2--|--2--2|
--------|--2--2|
--------|------|

se repite esto y sigue continuamente

-----|----|----|
--1--|----|--1-|
--2--|--1-|--2-|
--2--|--2-|--2-|
-----|--2-|----|
-----|----|----|

va la vuelta con Do
[se repite lo anterior pero al comienzo sera Do en lugar de La menor]


-----------|---3--3|--------|-------|
------1--1-|---0--0|--1---1-|-------|
-----------|---0--0|--2---2-|-------|
------2--2-|---0--0|--2---2-|-2--2--|
------3--3-|---2--2|--------|-2--2--|
-----------|---3--3|--------|-------|


-----------|---3--3|--------|-------|
------1--1-|---0--0|--1---1-|-------|
-----------|---0--0|--2---2-|-1--1--|
------2--2-|---0--0|--2---2-|-2--2--|
------3--3-|---2--2|--------|-2--2--|
-----------|---3--3|--------|-------|





Comentarios del colaborador: en la vuelta de do lo unico que cambia es la acorde la menor de el principio de cada vuelta

Calificar esta versión:
Aviso: Este fichero es trabajo propio de su transcriptor y representa su interpretación personal de la canción. El material contenido en esta página es para exclusivo uso privado, por lo que se prohibe su reproducción o retransmisión, así como su uso para fines comerciales.