Abismo, Moving On (tablatura)

Autor: david_pxndx | 30834 visualizaciones



Abismo
Intro
primera guitarra                  luewo va azi:
e-----------------------------------------|  |--------------------------|
B-----------------------------------------|  |--------------------------|
G------5---5-----5---5-----5---5----5---5-|  |--------------------------|
D-----------------------------------------|  |-10101010--8888--7777-8888|
A--4-4---4---0-0---0-------------0-0--0---|  |--------------------------|
E----------------------4-4---4------------|x2|--------------------------|x2

segunda guitarra
e-------------
B-13-11-10-11-x4

Primera guitarra
Verso
Te haz ievado mi corazon.....
e--------------------------|
B--------------------------|
G--66666-------------------|
D--66666-77777-66666-77777-|
A--44444-77777-66666-77777-|
E--------55555-44444-55555-|x2

segunda guitarra
Te haz ievado mi corazon.....
e------------------------------|
B------------------------------|
G------------------------------|
D-10101010--8888--7777-8888----|
A------------------------------|
E------------------------------|x2

Pre-coro
i al intentar zalir zolo te encuentro a ti....
primera guittarra
e------------------------
B-10-11-10-x7- 10-13-10----->ezto lo tocan al finalizar la zeptima vez (zkuxen la rola xD)
G-----------------------------
D-----------------------------
A-----------------------------
E-----------------------------

segunda guitarra
i al intentar zalir zolo te encuentro a ti....
e--------------------------------------
B--------------------------------------
G--------------------------------------
D--999999------------------------------
A--777777--999999--111111111111-777777-
E----------777777--9-9-9-9-9-9--555555-


Coro
ezto lo tocan laz doz liraz
I grito tu nombre y vuelvo a caer...
e-----------------------
B-----------------------
G-----------------------
D--66-----2222222222222-
A--44-77--2222222222222-
E-----55--0000000000000-x4


Te haz ievado mi corazon
e------------------------------13131313-----------------------------------
B---13131313--111111--10101010----------13131313--11111-10101010-11111111-
G-------------------------------------------------------------------------


Q al intentar zalir zolo t encuentro a ti.....
Pre-coro
(ezto lo tocan laz doz witarraz ezo creo xD)
e------------------------------------------
B------------------------------------------
G------------------------------------------
D--9999999---------------------------------
A--7777777-9999999--7777777--11111111-9999-
E----------7777777--5555555--9-9-9-9--7777-x2


Coro
ezto lo tocan laz doz liraz
I grito tu nombre y vuelvo a caer...
e-----------------------
B-----------------------
G-----------------------
D--66-----2222222222222-
A--44-77--2222222222222-
E-----55--0000000000000-x4


Zohloh
Primera guitarra
ammmm zpero q me entiendan xq nunk he zido mueno para hazer tabz d zoloz 
e-10//13---------------  --------------------------------------------------------------------------------------
B--------10------------  --------------------------------------------------------------------------------------
G-----------13-11-13-11  -15-11-15-11-15-11-15-11-16-11-16-11-16-11-16-11-15-11-15-11-15-11--11-11-13-15-13-11-
D----------------------  --------------------------------------------------------------------------------------
A----------------------  --------------------------------------------------------------------------------------
E----------------------  --------------------------------------------------------------------------------------x2

luewo ziwe
e-----------------------------------------------------------------------------------------
B-----------------------------------------------------------------------------------------
G-1111-13-15-13-1111-13-15-13-1111-13-15-13-1111-13-15-13-1111-13-15-13-1111-13-15-131313-
D-----------------------------------------------------------------------------------------
A-----------------------------------------------------------------------------------------
E-----------------------------------------------------------------------------------------x2

i para terminar (ammm cheken bn kmo ez io zolo lez ponwo la baze zolo le cheken mien kmo ze toka)
ezto lo tocan hazta q acaber la rola
e----------------------------------------------------------------------
B--11-10---11---11--11----11-10----11----11--11---11-10---11--11--11---
G--------11---11--11---11-------11----11---11--11-------11--11--11--11-
D----------------------------------------------------------------------
A----------------------------------------------------------------------
E----------------------------------------------------------------------

Segunda guitarra
e----------------------------------
B----------------------------------
G----------------------------------
D--6666666-----------2222222222222-
A--4444444--7777777--2222222222222-
E-----------5555555--0000000000000-x7

i termina azi
e-----------------------------------------|  
B-----------------------------------------|  
G------5---5-----5---5-----5---5----5---5-|  
D-----------------------------------------|  
A--4-4---4---0-0---0-------------0-0--0---|  
E----------------------4-4---4------------|x2

lalala cualkier duda zkribanme
[email protected] cuidenze
bai





Calificar esta versión:
Aviso: Este fichero es trabajo propio de su transcriptor y representa su interpretación personal de la canción. El material contenido en esta página es para exclusivo uso privado, por lo que se prohibe su reproducción o retransmisión, así como su uso para fines comerciales.