Ace Of Spades, Motorhead (tablatura)

Autor: CHaTO67 | 14815 visualizaciones

Cancion:Ace Of Spades
Interprete:Motorhead

MAIN RIFF:            
|------------------------------------|
|------------------------------------|
|------------------------------------|
|---------------------9-----8-----7--|
|---------------------7-----7-----7--|
|--0--0---0--0--0--0-----------------|(4 veces)

VERSE RIFF 1:     
if you like to gamble,       I tell you I'm your man

|--------------------------|--------------------------|
|--------------------------|--------------------------|
|--------------------------|--------------------------|
|-----5--------------------|--(5)---------------------|
|-----5--------------------|--(5)---------------------|
|--0--3--------------------|--(3)---------------------|

                                       (end VERSE RIFF 1)
you win some, loose some, it's all the same to me     
     
|--------------------------|--------------------------|
|--------------------------|--------------------------|
|--------------------------|--------------------------|
|-----5--------------------|--(5)---------------------|
|-----5--------------------|--(5)---------------------|
|--0--3--------------------|--(3)---------------------|

MAIN RIFF w/ FILL 1

FILL 1:                                   
|----10---10--------------|----10---10--------------|
|----10^--10--8-----8-----|----10^--10--8-----------|
|----------------9--------|----------------9--------|
|-------------------------|-------------------------|
|-------------------------|-------------------------|
|-------------------------|-------------------------|

                                        (end FILL 1)
|----10---10--------------|----10---10--------------|
|----10^--10--8-----8-----|----10^--10--8-----------|
|----------------9--------|----------------9--------|
|-------------------------|-------------------------|
|-------------------------|-------------------------|
|-------------------------|-------------------------|

VERSE RIFF 2:                             (end VERSE RIFF 2)
the pleasure is to play   it makes no difference what you say

|------------------------|----------------------------|
|------------------------|----------------------------|
|--7---------------------|--5-------------------------|
|--7---------------------|--5-------------------------|
|--5---------------------|--3-------------------------|
|------------------------|---------------------------|

MAIN RIFF (first 2 measures only) with FILL 1 (first 2 measures only)

VERSE RIFF 2          
I don't share your greed    the only card I need               is the  
 
|------------------------|-----------------------------|
|------------------------|-----------------------------|
|--7---------------------|--5--------------------------|
|--7---------------------|--5--------------------------|
|--5---------------------|--3--------------------------|
|------------------------|-----------------------------|


CHORUS:
   Ace of Spades                    the Ace of Spades          
|------------------------------------|
|------------------------------------|
|------------------------------------|
|---------------------9-----8-----7--|
|---------------------7-----7-----7--|
|--0--0---0--0--0--0-----------------|(4 veces)


VERSE RIFF 1
playing for the high one, dicing with the devil
going with the flow, it's all a game to me

MAIN RIFF w/ FILL 1

VERSE RIFF 2
seven or eleven, snake eyes watchin' you

MAIN RIFF (first 2 measures only) with FILL 1 (first 2 measures only)

VERSE RIFF 2
double up or quit, double stake or split

CHORUS
the Ace of Spades
the Ace of Spades

MAIN RIFF w/ palm mute

BRIDGE:
you know I'm born to loose   and   gambling's for fools
 
|-------------------------------|----------------------------|
|-------------------------------|----------------------------|
|---9------------------------7--|--9-------------------------|
|---9------------------------7--|--9-------------------------|
|---7------------------------5--|--7-------------------------|
|-------------------------------|----------------------------|

but that's the way I like it baby, I don't want to live forever
 
|------------------------------|-----------------------------|
|------------------------------|-----------------------------|
|------------------------------|---9--9--9--9---9--9--9--9---|
|------------------------------|---9--9--9--9---9--9--9--9---|
|------------------------------|---7--7--7--7---7--7--7--7---|
|------------------------------|-----------------------------|

                                   and don't forget the Joker
 
|-----------|------------------|-----------|----------------|
|-----------|------------------|-----------|----------------|
|--7--------|--(7)----9--7--5--|--4--------|-(4)------------|
|--7--------|--(7)----9--7--5--|--4--------|-(4)------------|
|--5--------|--(5)----7--5--3--|--2--------|-(2)------------|



Solo
|--------------------------|----------------------|----------------------------
-|
|--------------------------|----------------------|----------------------------
-|
|--------------------------|----------------------|----------------------------
-|
|--------------------------|-------5--7p5---5h7---|-7p5----7p5----7p5----7p5---
-|
|--0h3--5s7s5--3h5p3----3--|--5s7---------7-------|-----7------7------7------7-
-|
|--------------------5-----|----------------------|----------------------------
-|

                                 B7                                   rp       
           slide
|-----------------------------|------------------------------------|-----------
-----------------|
|-----------------------------|------------------------------------|--10-------
-----------------|
|-----------------------------|------------------------7--9BU(11)--|-(11)BD(9)-
-7h9p7-----/\-|
|---7BU(9)--7--5------------5-|-------7--9p7----7-8s9--------------|-----------
--------9--------|
|-------------------7--5h7----|-7s9----------9---------------------|-----------
-----------------|
|-----------------------------|------------------------------------|-----------
-----------------|
                                                                               
             slide up neck  
|--------------------------------------------------|---------------------------
-------------while picking
|-/10-10-10-10-10-10-10-10/10-10-10-10-10-10-10-10-|-10-10-10-10-11-11-11-11-12
-12-13-13-14-x/x/x-|
|-/11-11-11-11-11-11-11-11/11-11-11-11-11-11-11-11-|-11-11-11-11-12-12-12-12-13
-13-14-14-15-x/x/x-|
|--------------------------------------------------|---------------------------
-------------------|
|--------------------------------------------------|---------------------------
-------------------|
|--------------------------------------------------|---------------------------
-------------------|

|--10BU(12)BD(10)--8h10p8----8---|----8-10BU(12)BD(10)p8-----|
|-------------------------10-----|-10--------------------10--|
|--------------------------------|---------------------------|
|--------------------------------|---------------------------|
|--------------------------------|---------------------------|
|--------------------------------|---------------------------|

|-10p8-----------------------------------|-------------------------------------
|
|------10--10p8---8-10BU(12)-10p8---8----|-------------------------------------
|
|---------------9-----------------9------|----9---7-------------------------5--
|
|----------------------------------------|------------10------7----5--h--7-----
|
|----------------------------------------|-------------------------------------
|
|----------------------------------------|-------------------------------------
|

MAIN RIFF

VERSE RIFF 1
pushing up the ante, I know you've got to see me
read 'em and weep, the dead man's hand again

MAIN RIFF w/ FILL 1

VERSE RIFF 2
I see it in your eyes, take one look and die

MAIN RIFF (first 2 measures only) with FILL 1 (first 2 measures only)

VERSE RIFF 2
the only thing you see, you know it's gonna be

CHORUS
the Ace of Spades
the Ace of Spades

MAIN RIFF w/ palm mute

OUTRO: w/ FILL 2

|------------|---------------|---------------|--------------|
|------------|---------------|---------------|--------------|
|-7----------|--5------------|--7------------|--5-----------|
|-7----------|--5------------|--7------------|--5-----------|
|-5----------|--3------------|--5------------|--3-----------|
|------------|---------------|---------------|--------------|

|------------|---------------|---------------|--------------|
|-13^--------|--13^----------|--13^----------|--13^---------|
|------------|---------------|---------------|--------------|
|------------|---------------|---------------|--------------|
|------------|---------------|---------------|--------------|
|------------|---------------|---------------|--------------|

END.
|------------------------------|----------------------------|
|------------------------------|----------------------------|
|--9--7--9---------------------|--9--7--9-------------------|
|--9--7--9---------------------|--9--7--9-------------------|
|--7--5--7---------------------|--7--5--7-------------------|
|------------------------------|----------------------------|

Comentarios del colaborador: Agradecimientos a 'Fast' Eddie Clark

Calificar esta versión:
Aviso: Este fichero es trabajo propio de su transcriptor y representa su interpretación personal de la canción. El material contenido en esta página es para exclusivo uso privado, por lo que se prohibe su reproducción o retransmisión, así como su uso para fines comerciales.