Bitter Pill, Mötley Crüe (tablatura)

Autor: sco_van_ac/ | 22459 visualizaciones

*Intro* dropped d

Gtr1
 
|-----------------------------------0--3----|
|----2--3------3--2------3--0---------------|
|-------------------------------------------|
|-------------------------------7-----------|
|-7---------7--------4----------5-----------|
|-5---------4--------2----------------------|

gtr1---E1/0

    |------------------------------------------------|
Fig1|----------------------------------------------0-|
    |-1----------------1----------------1-----1--1---|
    |---2-2-2-2-2-2-2----2-2-2-2-2-2-2----2-2---2----|
    |------------------------------------------------|
    |------------------------------------------------|



     |-----------------|
     |-----------------|
     |-----------------|
     |-6----7---6------|( about 14 x's each)
     |-4----5---4------|
     |-----------------|

Chorus
                   |-Sliding-------|   
Gtr1 |------------------------------------|
     |------------------------------------|
     |------6-------7---6---7--6--7-------|
     |-7----6---4---7---6---7--6--7-------|
     |-7----4---4---5---4---5--4--5-------|
     |-5--------2-------------------------|

Gtr2 |---------------------------------------|
     |---------------------------------------|
     |---------------------------------------|
     |-----4---2-----4---2-----4---2--0---0--|
     |-0--------------------------------4----|
     |------------4---------2----------------|

Outro

|-----------------|
|-----------------|
|-----------------|
|--2---4---7------|
|--2---4---7------|
|--0---2---5------|

also another way to play fig.1

|-----------------------------------------------------
|-----------------------------------------------------
|-----------------------------------------------------
|--6-----------------6----------------6-----7-----9---
|-----7-7-7-7-7-7-7----7-7-7-7-7-7-7----7-7---7-7---7-
|-----0-0-0-0-0-0-0----0-0-0-0-0-0-0----0-0---0-0---0-

|----------------------|
|----------------------|
|----------------------|
|-6-----7-----9--------|
|---7-7---7-7---7------|
|---0-0---0-0---0------|
Calificar esta versión:
Aviso: Este fichero es trabajo propio de su transcriptor y representa su interpretación personal de la canción. El material contenido en esta página es para exclusivo uso privado, por lo que se prohibe su reproducción o retransmisión, así como su uso para fines comerciales.