Presidente, Morodo (acordes)

Autor: kali sokrts | 43498 visualizaciones

cmfmggsos


 Bueno pues aca de nuevo, ahora les dejo uno de mis temas preferidos de morodo, y bueno espero disfruten y haber si suena chingon, pues si hay algo mal no duden en comentarlo.
ABAJO BABYLON!!!!

[Este es el arreglo que se oye en casi toda la cancion y con el que empieza]


e/--------3--1-1-1-3-4----3----------------------------
B/--1-1-4--4--------------------------------------------
G/-------------------------------------------------------
D/-------------------------------------------------------
A/-------------------------------------------------------
E/-------------------------------------------------------

También se puede tocar de esta forma:


e/--------------------------------------------------------
B/--------8--6-6-6-8-9----8----------------------------
G/--5-5-8--8--------------------------------------------
D/--------------------------------------------------------
A/--------------------------------------------------------
E/--------------------------------------------------------


[Los acordes que se usan en toda la canción son: Cm, Fm, G#, G  en ese orden, solo hay que darle el efecto reggae]

  Cm                  Fm
Estoy cansa'o ya de ver en la tele
     G#                  G
tanto batty boy manejando los papeles
            Cm                 Fm
del gobierno, robando el pueblo,
                    G#
Quedándose el dinero
                  G
ya no puedo aguantar
             Cm
por vayacante
               Fm                    G#
pa' los romanos que manejan el system
                      G                Cm
Controlan mentes del poder sound system
                     Fm
Y aunque lo intenten no podrán debatirse
   G#               G               Cm
pues Rasta "resiste!" in da system.
                       
Estoy cansa'o ya de ver
Manipulación y abuso de poder
Polìticos "corruptos" que no paran de joder
Ven y ùnete a "Indie la caina"  sé lo que hey que hacer Ayen!
Todos son del vaticano Poh! Poh!
Matan a to' los diputados Wayooooh!
coged a to' los presidentes del mundo
Y acabar con ellos  uno y uno y uno y no hay
Ey! yo también kiero ser presidente
Es un negocio que hoy al dia es muy pudiente
Solamente tengo que engañar a la gente
Y no preocuparme de que el mundo es diferente [ bis]

Yo no sé cuanto esperas
para nunca ver las promesas de una tierra
"donde me quede
He dejado sueños armados en la pared
Vamos, y luego amanece, lo anula ya con su poder
Estoy cansa'o ya de ver ya
la presidencia se sube a cualquier "mind, man"
Que con la mano derecha se dedica a mandar
Y con la izquierda pues a robar
[???]
Lo que le interesa y le interesará Sayen!
Sólo con unos cuantos años de mentira
En lo que le llene la vida y cintura.
Yo también quiero ser presidente
Es un negocio que hoy en día es muy pudiente
Solamante tengo que engañar a la gente
....

Yo también quiero ser presidente
Es un negocio que hoy en día es muy pudiente
Solamente tengo que engañar a la gente...
 





Comentarios del colaborador: Letra de www.musica.com

Calificar esta versión:
Aviso: Este fichero es trabajo propio de su transcriptor y representa su interpretación personal de la canción. El material contenido en esta página es para exclusivo uso privado, por lo que se prohibe su reproducción o retransmisión, así como su uso para fines comerciales.