Al Otro Lado Del Sol, Miserables (acordes)

Autor: Melon182 | 31391 visualizaciones

dososmfasosmmimremsim


INTRO: 
Fa#m - Do#m - Mim - Sim
e------------------------------------------------------------|
b----7---7-9-10--9--7-5---5--------------5--55-7-9-7-5-4---4-|
g------------------------6-----6-9-6-9-6-----------------4---|
d------------------------------------------------------------| x2
a------------------------------------------------------------|
e------------------------------------------------------------|

 
Verso:
 Fa#m              Do#m
 Desde que tu llegaste a mí
 Mim                    Sim
 Ya nada a vualto a ser gris
 Fa#m                     Do#m 
 No hay soledad ya no hay más temor
 Mim                          Sim
 Tu le has dado a mi vida un nuvo Sol 

 Fa#m                    Do#m
 Hoy por ti yo vuelvo a vivir
 Mim                        Sim
 Hoy por ti yo he vuelto a sentir
 Fa#m                  Do#m                  
 La ternura que un día perdí
 Mim                        Sim
 Contigo he vuelto y es para ti.

e------------------------------------------------------------|
b----7---7-9-10--9--7-5---5--------------5--55-7-9-7-5-4---4-|
g------------------------6-----6-9-6-9-6-----------------4---|
d------------------------------------------------------------| x2
a------------------------------------------------------------|
e------------------------------------------------------------|

Fa#m                  Do#m
 Iremos al otro lado del Sol 
  Mim                         Sim
 Donde no exista pena, ni rencor
 Fa#m                              Do#m
 Donde el llanto se convierta en una flor
 Mim                                 Sim
 Ahí donde el odio de transforme en amor

 Fa#m                         Do#m
 Entre arcoiris quiero verte reir 
 Mim                          Sim
 Y sobre nubes cuidaré tu dormir
 Fa#m                         Do#m
 Las estrellas porti brillarán y 
 Mim                       Sim
 Su luz siempre te acompañará

e------------------------------------------------------------|
b----7---7-9-10--9--7-5---5--------------5--55-7-9-7-5-4---4-|
g------------------------6-----6-9-6-9-6-----------------4---|
d------------------------------------------------------------| x2
a------------------------------------------------------------|
e------------------------------------------------------------|

Fa#m Do#m Mim Rem Mim x2

 Fa#m                          Do#m
 Desde que tu llegaste a mí las sombras
 Mim                                   Sim
 se alejaron de aquí desde que tu llegaste
 Fa#m                           Do#m 
 a mi supe que no podía vivir sin ti.

E----------------------------------------------------------|
B----7---7-9-10--9-7-5---5--------------5--5-7-9-7-5-4---4-|
G----------------------6-----6-9-6-9-6-----------------4---|
D----------------------------------------------------------| x2
A----------------------------------------------------------|
E----------------------------------------------------------|


E----------------------------------------------------------|
B----7---7-9-10--12-10-9--12-10-9--4-----------------------|
G----------------------------------------------------------|
D----------------------------------------------------------| x1
A----------------------------------------------------------|
E----------------------------------------------------------|





Comentarios del colaborador: existen algunos errores en la tablatura, pero es mi primer aporte en esta pagina por favor cualquier duda abisar a taaz.-@hotmail.es :D

Calificar esta versión:
Aviso: Este fichero es trabajo propio de su transcriptor y representa su interpretación personal de la canción. El material contenido en esta página es para exclusivo uso privado, por lo que se prohibe su reproducción o retransmisión, así como su uso para fines comerciales.