Himno De La Alegria, Miguel Rios (tablatura)

Autor: leyamilo | 21481 visualizaciones



aquí les traigo el tab de el himno de la alegría 

1|-0-0-1-3-3-1-0-------0-0---
2|--------------3-1-1-3---3-3
3|---------------------------
4|---------------------------
5|---------------------------
6|---------------------------

1|-0-0-1-3-3-1-0--------0----
2|--------------3-1-1-3-3-1-1
3|---------------------------
4|---------------------------
5|---------------------------
6|---------------------------

1|--0----0-1-0----0-1-0-----3
2|-3-1--3-----1--3-----3-1-3-
3|---------------------------
4|---------------------------
5|---------------------------
6|---------------------------

espero que les guste





Calificar esta versión:
Aviso: Este fichero es trabajo propio de su transcriptor y representa su interpretación personal de la canción. El material contenido en esta página es para exclusivo uso privado, por lo que se prohibe su reproducción o retransmisión, así como su uso para fines comerciales.