Agnus Day, Michael W. Smith (tablatura)

Autor: sarita | 26989 visualizaciones



Intro:

             Esto lo hace el violín pero para guitarra se escucha bien

              B -------------------------------------------
              G --6-7-9-11-9-----6-7-9-11-13-14------------
              D --7-7-9-12-7-----7-7-7-12-14-16------------
              A -------------------------------------------


              B -------------------------------------------
              G --13-11-13-11--9-11--9-7-9-----------------
              D --14-12-14-12-12-12-12-7-7-----------------
              A -------------------------------------------  x2


                         A  D  A         A  D   E    F#m7
                        Ale-lu-ya,      Alelu---u---uya
                                 E     D           A
                        Nuestro Dios Poderoso es Rey.
                         A  D  A         A  D   E    F#m7
                        Ale-lu-ya,      Alelu---u---uya
                                 E     D           A
                        Nuestro Dios Poderoso es Rey.
                           A  D  E    F#m7
                        Alelu---u---uya…

             CORO…

                        D   E   A         E   A
                        Sa-an-to,        Santo
                             D    F#m7    D    E      Esus4
                        El Señor Dios    Poderoso
                        Bm7    Aadd9/C#    D9
                        Digno     eres     Tú,
                        Bm7    Aadd9/C#    D9
                        Digno     eres     Tú
                        D       E    A      E     A
                        Tú eres Santo,     Santo
                             D    F#m7    D   E      Esus4
                        El Señor Dios    Poderoso
                        Bm7    Aadd9/C#     D9
                        Digno     eres      Tú,
                        Bm7    Aadd9/C#     D9
                        Digno     eres      Tú
                         E    A
                        Amen.-





Calificar esta versión:
Aviso: Este fichero es trabajo propio de su transcriptor y representa su interpretación personal de la canción. El material contenido en esta página es para exclusivo uso privado, por lo que se prohibe su reproducción o retransmisión, así como su uso para fines comerciales.