Shake It, Metro Station (tablatura)

Autor: xebaaaa | 36765 visualizaciones



-----------------------------------------------
-----------------------------------------------
-----------------------------------------------
-----------------------------------------------
----9-9--11-14-14/7---7-7-7--14-14/7-----------
----7-7--9--12-12/5---5-5-5--12-12/5-----------


----------------------------------------------------------------
----------------------------------------------------------------
----------------------------------------------------------------
----------------------------------------------------------------
-9-9-9-9-9-9-9-9--11-11-11-11-14-14-14-14--7-7-7-7-7-7-7-7-7-7-7
-7-7-7-7-7-7-7-7--9--9--9--9--12-12-12-12--5-5-5-5-5-5-5-5-5-5-5

estas partes se usan en toda la cancion
para mas info [email protected]





Calificar esta versión:
Aviso: Este fichero es trabajo propio de su transcriptor y representa su interpretación personal de la canción. El material contenido en esta página es para exclusivo uso privado, por lo que se prohibe su reproducción o retransmisión, así como su uso para fines comerciales.