Decode, Metro Station (tablatura)

Autor: TORRE_GUITAR | 34505 visualizaciones



La leyenda: v = (rasgueando la ida a)  
       ^ s = la curvatura a despacio  
  
El verso:
     C#  C#/D#  A#m    G#
E|--------------------------|
B|--------------------------|
G|---6-----6-----6-----5----|(2x)
D|---6-----6-----8-----6----|
A|---4-----6-----8-----6----|
E|---------------6-----4----|

 (Guitarra 2)
E|--------------------9-----------------------9-----|
B|--11----11----11----------11----11----11----------|
G|-----10----10----10---10-----10----10----10---10--|
D|--------------------------------------------------|
A|--------------------------------------------------|
E|--------------------------------------------------|

E|--------------------13--------------------11--|
B|--11----11----11-----------11----11----11-----|
G|-----13----13----13----13-----13----13--------|
D|----------------------------------------------|
A|----------------------------------------------|
E|----------------------------------------------|


    F#      D#m     A#m     G#
E|-----------------------------------|
B|-----------------------------------|
G|--3-------8------------------------|
D|--4(8x)---8(8x)---8(8x)---6(16x)---|
A|--4-------6-------8-------6--------|
E|--2---------------6-------4--------|

Coro 
    F#              D#m             A#m             G#
E|-----------------------------------------------------------------|
B|-----------------------------------------------------------------|
G|--3-----3v-3v-3---8-----8v-8v-8---6-----6v-6v-6---5-----5v-5v-5--|
D|--4(3x)-4v-4v-4---8(3x)-8v-8v-8---8(3x)-8v-8v-8---6(3x)-6v-6v-6--|
A|--4-----4v-4v-4---6-----6v-6v-6---8-----8v-8v-8---6-----6v-6v-6--|
E|--2-----2v-2v-2-------------------6-----6v-6v-6---4-----4v-4v-4--|

    F#              D#m             A#m             G#
E|-------------------------------------------------------------|
B|-------------------------------------------------------------|
G|--3-----3v-3v-3---8-----8v-8v-8---6-----6v-6v-6---5-----5-5--|
D|--4(3x)-4v-4v-4---8(3x)-8v-8v-8---8(3x)-8v-8v-8---6(3x)-6-6--|
A|--4-----4v-4v-4---6-----6v-6v-6---8-----8v-8v-8---6-----6-6--|
E|--2-----2v-2v-2-------------------6-----6v-6v-6---4-----4-4--|

 (Guitarra 2)
E|--------------------9-9-----------------------9-9-----|
B|--11----11----11------------11----11----11------------|
G|-----10----10----10-----10-----10----10----10-----10--|
D|------------------------------------------------------|
A|------------------------------------------------------|
E|------------------------------------------------------|

E|--------------------13-13-------------------11-11--|
B|--11----11----11-------------11----11----11--------|
G|-----13----13----13-------13----13----13-----------|
D|---------------------------------------------------|
A|---------------------------------------------------|
E|---------------------------------------------------|


E|--6---6---6---6----4---4---4---4--|
B|----6---6---6---6----5---5---5----|
G|----------------------------------|
D|----------------------------------|
A|----------------------------------|
E|----------------------------------|


Verso:

    F#      D#m     A#m     G#
E|-----------------------------------|
B|-----------------------------------|
G|--3-------8------------------------|
D|--4(8x)---8(8x)---8(8x)---6(8x)----|
A|--4-------6-------8-------6--------|
E|--2---------------6-------4--------|

 (Guitarra 2)
E|--------------------9-----------------------9-----|
B|--11----11----11----------11----11----11----------|
G|-----10----10----10---10-----10----10----10---10--|
D|--------------------------------------------------|
A|--------------------------------------------------|
E|--------------------------------------------------|

E|--------------------13--------------------11--|
B|--11----11----11-----------11----11----11-----|
G|-----13----13----13----13-----13----13--------|
D|----------------------------------------------|
A|----------------------------------------------|
E|----------------------------------------------|


    F#      D#m     A#m     G#
E|-----------------------------------|
B|-----------------------------------|
G|--3-------8------------------------|
D|--4(8x)---8(8x)---8(8x)---6(16x)---|
A|--4-------6-------8-------6--------|
E|--2---------------6-------4--------|

Coro:

    F#              D#m             A#m             G#
E|-----------------------------------------------------------------|
B|-----------------------------------------------------------------|
G|--3-----3v-3v-3---8-----8v-8v-8---6-----6v-6v-6---5-----5v-5v-5--|
D|--4(3x)-4v-4v-4---8(3x)-8v-8v-8---8(3x)-8v-8v-8---6(3x)-6v-6v-6--|
A|--4-----4v-4v-4---6-----6v-6v-6---8-----8v-8v-8---6-----6v-6v-6--|
E|--2-----2v-2v-2-------------------6-----6v-6v-6---4-----4v-4v-4--|

    F#              D#m             A#m             G#
E|-------------------------------------------------------------|
B|-------------------------------------------------------------|
G|--3-----3v-3v-3---8-----8v-8v-8---6-----6v-6v-6---5-----5-5--|
D|--4(3x)-4v-4v-4---8(3x)-8v-8v-8---8(3x)-8v-8v-8---6(3x)-6-6--|
A|--4-----4v-4v-4---6-----6v-6v-6---8-----8v-8v-8---6-----6-6--|
E|--2-----2v-2v-2-------------------6-----6v-6v-6---4-----4-4--|

 (Guitarra 2)
E|--------------------9-9-----------------------9-9-----|
B|--11----11----11------------11----11----11------------|
G|-----10----10----10-----10-----10----10----10-----10--|
D|------------------------------------------------------|
A|------------------------------------------------------|
E|------------------------------------------------------|

E|--------------------13-13-------------------11-11--|
B|--11----11----11-------------11----11----11--------|
G|-----13----13----13-------13----13----13-----------|
D|---------------------------------------------------|
A|---------------------------------------------------|
E|---------------------------------------------------|
 Improvise

 Entra el violin
E|--------------------------|    |----------------------------------------|
B|--------------------------|    |----------------------------------------|
G|--5^s--3^s--5^s--3^s--3^s-|(2x)|--5^s--3^s--3^s--1^s--1^s---------------|
D|--------------------------|    |----------------------------------------|
A|--------------------------|    |---------------------------3^s-4^s-6^s--|
E|--------------------------|    |----------------------------------------|

E|--------------------------|    |----------------------------------------|
B|--------------------------|    |----------------------------------------|
G|--5^s--3^s--5^s--3^s--3^s-|(2x)|--5^s--3^s--3^s--1^s--1^s--5^s-6^s-8^s--|
D|--------------------------|    |----------------------------------------|
A|--------------------------|    |----------------------------------------|
E|--------------------------|    |----------------------------------------|

 Toka el teclado
E|--16-----14-----13-----11---|
B|--14-----14-----14-----11---|
G|----------------------------|
D|----------------------------|
A|----------------------------|
E|----------------------------|
 (Do you see....)
    F#      D#m     A#m     G#
E|-------------------------------|
B|-------------------------------|
G|--3-------8--------------------|
D|--4-------8-------8-------6----|
A|--4-------6-------8-------6----|
E|--2---------------6-------4----|
 (Do you see...)

Coro 
    F#              D#m             A#m             G#
E|-----------------------------------------------------------------|
B|-----------------------------------------------------------------|
G|--3-----3v-3v-3---8-----8v-8v-8---6-----6v-6v-6---5-----5v-5v-5--|
D|--4(3x)-4v-4v-4---8(3x)-8v-8v-8---8(3x)-8v-8v-8---6(3x)-6v-6v-6--|
A|--4-----4v-4v-4---6-----6v-6v-6---8-----8v-8v-8---6-----6v-6v-6--|
E|--2-----2v-2v-2-------------------6-----6v-6v-6---4-----4v-4v-4--|
                    (yeah....yeah....)

    F#              D#m             A#m             G#
E|-----------------------------------------------------------------|
B|-----------------------------------------------------------------|
G|--3-----3v-3v-3---8-----8v-8v-8---6-----6v-6v-6---5-----5v-5v-5--|
D|--4(3x)-4v-4v-4---8(3x)-8v-8v-8---8(3x)-8v-8v-8---6(3x)-6v-6v-6--|
A|--4-----4v-4v-4---6-----6v-6v-6---8-----8v-8v-8---6-----6v-6v-6--|
E|--2-----2v-2v-2-------------------6-----6v-6v-6---4-----4v-4v-4--|

    F#              D#m             A#m             G#
E|-------------------------------------------------------------|
B|-------------------------------------------------------------|
G|--3-----3v-3v-3---8-----8v-8v-8---6-----6v-6v-6---5-----5-5--|
D|--4(3x)-4v-4v-4---8(3x)-8v-8v-8---8(3x)-8v-8v-8---6(3x)-6-6--|
A|--4-----4v-4v-4---6-----6v-6v-6---8-----8v-8v-8---6-----6-6--|
E|--2-----2v-2v-2-------------------6-----6v-6v-6---4-----4-4--|


E|------------------------------------|
B|------------------------------------|
G|------------------------------------|(3x)
D|----------8-------------------------|
A|--4---6---6---8--3--4---8--3--4--6--|
E|--2---4-------6--1--2---6--1--2--4--|
 ( i think i know......)


E|--------------------------------------|
B|--------------------------------------|
G|--------------------------------------|
D|----------8--------------------3-4-8--|
A|--4---6---6---8--3--4---8--3---3-4-6--|
E|--2---4-------6--1--2---6--1---1-2----|






Comentarios del colaborador: escuchen bien la cancion para tokarla buena suerte [email protected]

Calificar esta versión:
Aviso: Este fichero es trabajo propio de su transcriptor y representa su interpretación personal de la canción. El material contenido en esta página es para exclusivo uso privado, por lo que se prohibe su reproducción o retransmisión, así como su uso para fines comerciales.