Bad Seed, Metallica (tablatura)

Autor: artanox | 39024 visualizaciones

1) 
 c#-------------------------------------------------------------------- 
 G#-------------------------------------------------------------------- 
 E--------------------------------------------------------------------- 
 B---2-0----------2-0---------5-2-0----------2-0---------2-2-2-2------- 
 F#------2-0----------2-0-----5-----2-0----------2-0-----2-2-2-2------- 
 C#----------3-0----------3-0-3---------3-0----------3-0-0-0-0-0-3~~3~~ 
 Intro riff 
  
 2) 
 B-----2-2-2-2-2-------------2-2-2-2-2-------------5-5-5-5-7--8-8
 F#----2-2-2-2-2-------------2-2-2-2-2-------------5-5-5-5-7--8-8
 C#--3p0-0-0-0-0-5p0-3h5-3p0-0-0-0-0-0-5p0-3h5-3p0-3-3-3-3-5--6-6
      pm........             .........             .............. 
  
  
 3) 
 B-----2-2-2-------2-2-2-------2-2-2
 F#----2-2-2-------2-2-2-------2-2-2
 C#--3p0-0-0-0h2h3-0-0-0-0h2h3-0-0-0
      pm....       .....       .....
 Verse
 "Come clean, fess up."
  
  
 4a) James 
 B---7-5----------7-5----------10 
 F#------5-7----------7-5------10 
 C#----------8-5----------8-5--8- 
 4b) Kirk 
 B---7-7-7-7-7-7-7-10 
 F#--7-7-7-7-7-7-7-10 
 C#--5-5-5-5-5-5-5-8- 
 bridge 
 "Ladies and gentilmen" 
  
  
  
 5a) James 
 B---5-5-5-5-2----------------5-5-5-5-2----------------5-5-5-5-7------------ 
 F#--5-5-5-5-2----------------5-5-5-5-2----------------5-5-5-5-7------------ 
 C#--3-3-3-3-0-0h5p0-3h5-3p0--3-3-3-3-0-0h5p0-3h5-3p0--3-3-3-3-5-5p0-3h5-3p0 
 5b) Kirk 
 c#------------7~~~~~~~~~~--------------12~~~~~~~~~~-------------7~~~~~~---- 
 G#--------------------------------------------------------------8---------- 
 E-------------------------------------------------------------------------- 
 B---5-5-5-5------------------5-5-5-5------------------5-5-5-5-------------- 
 F#--5-5-5-5------------------5-5-5-5------------------5-5-5-5-------------- 
 C#--3-3-3-3------------------3-3-3-3------------------3-3-3-3-------------- 

 Chorus
 "Swing the noose again."
  
  
 6) 
 B---2-2-2-2-5-5-5-5-7-7-7-7-8-8-8-8
 F#--2-2-2-2-5-5-5-5-7-7-7-7-8-8-8-8
 C#--0-0-0-0-3-3-3-3-5-5-5-5-6-6-6-6
 "Choking on a bad seed" (about 2:00)
Calificar esta versión:
Aviso: Este fichero es trabajo propio de su transcriptor y representa su interpretación personal de la canción. El material contenido en esta página es para exclusivo uso privado, por lo que se prohibe su reproducción o retransmisión, así como su uso para fines comerciales.