Mgs2, Metal Gear Solid (tablatura)

Autor: the silent man | 30587 visualizaciones

|-----------------------------7-5-------------7-10~---9-10-12--
|-7-5-----5-7-0-7-5~----5-7~------7---5~---7--------------------
|-----7~--------------7-------------7---------------------------
|---------------------------------------------------------------
|---------------------------------------------------------------
|---------------------------------------------------------------


|-10-------------9-9h10-9-----------|
|----12~----10-12---------12-10-12--|
|----------------------------------|
|----------------------------------|
|----------------------------------|
|----------------------------------|

es lo mismo q la primera , solo q aqui se arreglo el error q habia
Calificar esta versión:
Aviso: Este fichero es trabajo propio de su transcriptor y representa su interpretación personal de la canción. El material contenido en esta página es para exclusivo uso privado, por lo que se prohibe su reproducción o retransmisión, así como su uso para fines comerciales.