Metal Gear Solid (intro), Metal Gear Solid (tablatura)

Autor: hormigaxx | 38281 visualizaciones

|-----------------------------------7--5-----------------------|
|--7--5-----5--7--0--7--5-----5--7--------7-----5--------------|
|--------7-----------------7-----------------7-----------------|
|--------------------------------------------------------------|
|--------------------------------------------------------------|
|--------------------------------------------------------------|


|-----7--10--9--10--12--10--7--5--7--9--10--9--7--5--7---------|
|--7-----------------------------------------------------------|
|--------------------------------------------------------------|
|--------------------------------------------------------------|
|--------------------------------------------------------------|
|--------------------------------------------------------------|

Comentarios del colaborador: caulquier cosa me dicen la areglo

Calificar esta versión:
Aviso: Este fichero es trabajo propio de su transcriptor y representa su interpretación personal de la canción. El material contenido en esta página es para exclusivo uso privado, por lo que se prohibe su reproducción o retransmisión, así como su uso para fines comerciales.