Metal Gear Solid 2 (intro), Metal Gear Solid (tablatura)

Autor: Metal-dog | 25550 visualizaciones

|--------------------------------7--5--------------------------|
|--7--5--5--7--0--7--5-----5--7--------7-----5-----------------|
|-----------------------7-----------------7--------------------|
|--------------------------------------------------------------|
|--------------------------------------------------------------|
|--------------------------------------------------------------|


|-----7--10--9--10--12--10--7--5--7--9--10--9--7--5--7---------|
|--7-----------------------------------------------------------|
|--------------------------------------------------------------|
|--------------------------------------------------------------|
|--------------------------------------------------------------|
|--------------------------------------------------------------|



Me encanta esta cancion, escuchenla para saberse el ritmo ya que es mi primera cancion y no se que es PM o (0) y esas cosas xP
Es solo la intro, no me se la otra parte xD
Calificar esta versión:
Aviso: Este fichero es trabajo propio de su transcriptor y representa su interpretación personal de la canción. El material contenido en esta página es para exclusivo uso privado, por lo que se prohibe su reproducción o retransmisión, así como su uso para fines comerciales.