Cuando Me Vaya, Melocos (tablatura)

Autor: fran-lcn | 28921 visualizaciones



|-------------------------------------------------------------
|-----------3-------------2-------------3---------2---2-3-2---
|-------2-----2-------2-----2-------4-----4-------------------
|-----0---0---------2---2---------4---4---------4---4---------
|---0-------------0-------------2-------------2---------------
|-------------------------------------------------------------

|-----------0-------------0-------------2-------------2-----
|-------0-----0-------2-----2-------2-----2-------3-----3---
|-----------------------------------------------------------
|-----2---2---------2---2---------4---4---------4---4-------
|-----------------0---------------------------2-------------
|---0---------------------------2---------------------------

|-----------3-------------3-------------5-------------5-----
|-------3-----3-------3-----3-------5-----5-------5-----5---
|-----------------------------------------------------------
|-----5---5---------5---5---------7---7---------7---7-------
|-----------------------------------------------------------
|---3-------------3-------------5-------------5-------------





Calificar esta versión:
Aviso: Este fichero es trabajo propio de su transcriptor y representa su interpretación personal de la canción. El material contenido en esta página es para exclusivo uso privado, por lo que se prohibe su reproducción o retransmisión, así como su uso para fines comerciales.