Silent Scorn, Megadeth (tablatura)

Autor: limplung93 | 22700 visualizaciones

Riff 1 (clean)
e|---------------------------------|
B|---------------------------------|
G|-------0-----0---------0-----0---|
D|-----2---4-2---2-----2---4-2---2-|
A|---2---------------2-------------|
E|-0---------------0---------------|

e|---------------------------------|
B|---------------------------------|
G|-------0-----0---------0-----0---|
D|-----2---4-2---2-----2---4-2---2-|
A|---3---------------3-------------|
E|-0---------------0---------------|

e|---------------------------------|
B|---------------------------------|
G|-------0-----0---------0-----0---|
D|-----2---4-2---2-----3-----4---4-|
A|---4---------------1-----2-------|
E|-0---------------0---------------|

e|---------------------------------|
B|---------------------------------|
G|-------0-----0---------0-------0-|
D|-----2---4-2---2-----2-------2---|
A|---2---------------4-------3-----|
E|-0---------------0-------0-------|


Solo over Riff 1
e|----------------------------------------|
B|---5~~---7b8---5~~------------7b8---5~~-|
G|-4-------------------4-5~~--------------|
D|----------------------------------------|
A|----------------------------------------|
E|----------------------------------------|

e|---------------------------------8-7-5---7-5---------|
B|-----------7b8--5~---------------------8-----8---5~~-|
G|-4--5h6~~-----------6~--7~~~--x----------------7-----|
D|-----------------------------------------------------|
A|-----------------------------------------------------|
E|-----------------------------------------------------|

e|--------------------------------------------------|
B|-----8~--(8)\-------7~-(7)\--------5~-------------|
G|-4-5------------4-5----------4-5-5-----7~--5~--7~-|
D|--------------------------------------------------|
A|--------------------------------------------------|
E|--------------------------------------------------|

e|-----------------------------------------------|
B|-----------------------------------------------|
G|-----------------------------------------------|
D|-----------------------------------------------|
A|---------------7-9-10-9-7-6-7------10-9-7-9-10-|
E|-/7--7-6--7~~------------------/7~-------------|

e|---------------------------------------------------|
B|---------------------------------------------------|
G|---------------------------------------------------|
D|---------------------------------------------------|
A|---------------7-9-10-9-7-6-7--------7-10-9-7-9-10-|
E|-/8--8-7--8~~-------------------7/8----------------|

e|-------------------------------------------------------|
B|-------------------------------------------------------|
G|---------------------------7-9-------------------------|
D|--------------------7-9-10----10-9~~--8~\--------------|
A|-------------7-9-10-----------------------10-7-10-7~~\-|
E|-/9-9-8-9~~--------------------------------------------|

e|--------------|
B|--------------|
G|--------------|
D|----------1/9-|
A|-/4~--3~------|
E|--------------|


End solo


Riff 2 (clean)
e|---------------------------------|
B|---------------------------------|
G|---------------------2-------0---|
D|-----2-------0-----2-------2---2-|
A|---2-------2-----0-----2-3-------|
E|-0-----2-3-----3-----------------|

Final time
e|---------------------------------------|
B|-------------------------[quick strum]-|
G|---------------------2-------0---------|
D|-----2-------0-----2-------2---2-------|
A|---2-------2-----0-----2-3-------------|
E|-0-----2-3-----3-----------------------|


Solo over Riff 2
e|-------------------------------------------------|
B|-----------------12--10~~--12-12h13-12~--10~-----|
G|-9~---11-11h12~------------------------------12~-|
D|-------------------------------------------------|
A|-------------------------------------------------|
E|-------------------------------------------------|

e|-------------------------------------------------|
B|-----------------12--10~~------------------------|
G|-9~---11-11h12~--------------------------------7-|
D|---------------------------10--9~-------7-9-10---|
A|-----------------------------------9-10----------|
E|-------------------------------------------------|

e|-------------------------------------------------|
B|----------------12--10~~--12-12h13-12~--10~------|
G|-9~---11-11h12~------------------------------12~-|
D|-------------------------------------------------|
A|-------------------------------------------------|
E|-------------------------------------------------|


e|-12~~--------15~~--------17~~---------------20~~~-|
B|-------12-12-------12-12-------12-12-12h13--------|
G|--------------------------------------------------|
D|--------------------------------------------------|
A|--------------------------------------------------|
E|--------------------------------------------------|
Calificar esta versión:
Aviso: Este fichero es trabajo propio de su transcriptor y representa su interpretación personal de la canción. El material contenido en esta página es para exclusivo uso privado, por lo que se prohibe su reproducción o retransmisión, así como su uso para fines comerciales.