Insomnia, Megadeth (tablatura)

Autor: gaby-argento | 38805 visualizaciones

Intro (Violin arrange for guitar)
-----

|---------------------------------------||
|---------------------------------------||
|-2~--3~--0--2~--3p2p03p2p0p3p2p0-0-2~--||
|---------------------------------------||
|---------------------------------------||
|---------------------------------------||


The arabian part:
-----------------

|-------------------------------||
|-------------------------------||
|-------------------------------||
|-7-7--8--5--7----7-7--8--5--7--||
|-0-0--0--0--0----0-0--0--0--0--||
|-------------------------------||


Verse 1
-------

|--Guitar-1&2--|
|-----------------------------------------------||
|-----------------------------------------------||
|-----------------------------------------------||
|-7---8-5-7---7---8-5-7---7---8-5-7---10--9--8--||
|-------------------------------------10--9--8--||
|-5---6-3-5---5---6-3-5---5---6-3-5---8---7--6--|| Repeat...


Last time:
---------

|--Guitar-2--|Violin arrange for guitar...
|--------------||
|-10--11-8-10--||
|--------------||
|--------------||
|--------------||
|--------------||



Chorus
------

|-----------------|-------------------||
|-----------------|-------------------||
|-----------------|-------------------||
|-7---9---10--12--|12---11-10--9-8--8-||
|-7---9---10--12--|12---11-10--9-8--8-||
|-5---7---8---10--|10---9--8---7-6--6-||


|--Guitar-2--|Violin arrange for guitar...
|-17--19--20--22--||
|-----------------||
|-14--16--17--19--||
|-----------------||
|-----------------||
|-----------------||


Back to Verse...
        Chorus..
        Intro...



Bridge/Solo
-----------
                                           Play 3x
|-------------------------------------------------|
|-------------------------------------------------|
|-------------------------------------------------|
|-------------------------------------------------|
|-------------------------------------------------|
|-0--1--2--3--0--4--5--6--0--7--8--9--0--10-11-12-|

|-------------------------------||
|-------------------------------||
|-------------------------------||
|-------------------------------||
|-------------------------------||
|--12-11-10-9-8-7-6-5-4-3-2-1-0-||



Back to Chorus...

Comentarios del colaborador: by:gaby-argento

Calificar esta versión:
Aviso: Este fichero es trabajo propio de su transcriptor y representa su interpretación personal de la canción. El material contenido en esta página es para exclusivo uso privado, por lo que se prohibe su reproducción o retransmisión, así como su uso para fines comerciales.