Countdown To Extincion, Megadeth (tablatura)

Autor: gibson14 | 31992 visualizaciones

|-------------|--------------|-----------------|--------------------|
|-------------|--------------|-----------------|--------------------|
|-2-----------|-10-----------|-----------------|-----10-9-(9)----2--|
|-2-----------|-10-----------|-----------------|-----10-9-(9)----2--|
|-0-------2-3-|--8-------2-3-|-------------2-3-|------8-7-(7)--3-0--|
|-------------|--------------|-3-3-3-3-3-3-----|-3-3----------------|


  
|-------------------|-------------------|
|-------------------|-------------------|
|-(2)---------------|-(2)---------------|
|-(2)---------------|-(2)---------------|
|-(0)---------------|-(0)---------------|
|-------------------|-------------------|
|
| Gtr III
|  
|-------------------|-------------------|
|-------------------|-------------------|
|-------------------|-------------------|
|-------------------|-------------------|
|-----0-0-0-0-0-2s3s|==8--8-8-8-8-8-8-8-|
|-------------------|-------------------|


  
|-------------------|--------------------|
|-------------------|--------------------|
|-(2)---------------|-(2)----------------|
|-(2)---------------|-(2)----------------|
|-(0)---------------|-(0)----------------|
|-------------------|--------------------|
|
| 
|-------------------|--------------------|
|-------------------|--------------------|
|-------------------|--------------------|
|-------------------|--------------------|
|--5--5-5-5-5-5-5-5-|-----------7-7-7-7\-|
|-------------------|--3--3-3-3----------|


   
 
|---------------------|---------------------|
|---------------------|---------------------|
|-(2)-----------------|-(2)-----------------|
|-(2)-----------------|-(2)-----------------|
|-(0)-----------------|-(0)-----------------|
|---------------------|---------------------|
|
|  
|---------------------|---------------------|
|---------------------|---------------------|
|---------------------|---------------------|
|-------------------7-|---------------------|
|--0--0-0-0-0-3s5h7---|--8--8-8-8-8-8-7-8-7-|
|---------------------|---------------------|


  +W                     W
|----------------------|------------------||
|----------------------|------------------||
|-(2)------------------|-2----------------||
|-(2)------------------|-2----------------||
|-(0)------------------|-0----------------||
|----------------------|------------------||
|
|  
|----------------------|------------------||
|----------------------|------------------||
|----------------------|------------------||
|--------------------2-|------------------||
|--5--5-5-5-5-5\-3h5---|---------7-7-7-7--||
|----------------------|-3-3-3-3----------||


   Verse
    
||-----------|-1--------|-2--------|-3----0-----||
||o----------|-1--------|-3--------|-3----0----o||
||--2--------|-2--------|-2--------|-0----1-----||
||--2--------|-3--------|-0--------|-0----2-----||
||o-0--------|----------|----------|-----------o||
||-----------|----------|----------|------------||


 
  Gtrs I, II
  
|-------------|-----------|----------|-----------|
|-------------|-----------|----------|-----------|
|-2-----------|-10--------|-7--------|------9----|
|-2-----------|-10--------|-7--------|-5----9----|
|-0-------3/--|--8--------|-5--------|-5----7----|
|-------------|-----------|----------|-3---------|


  
|------------|-----------|----------|-----------||
|------------|-----------|----------|-----------||
|-2----------|-10--------|-7--------|------9----||
|-2----------|-10--------|-7--------|-5----9----||
|-0-------3--|--8--------|-5--------|-5----7----||
|------------|-----------|----------|-3---------||


 Pre-Chorus
 
|-------------|--------------|-----------------|-------------------||
|-------------|--------------|-----------------|-------------------||
|-2-----------|-10-----------|-----------------|-----10-9-(9)------||
|-2-----------|-10-----------|-----------------|-----10-9-(9)------||
|-0-------2-3-|--8-------2-3-|-------------2-3-|------8-7-(7)--3---||
|-------------|--------------|-3-3-3-3-3-3-----|-3-3-------------3-||


 Chorus
  
|------------------------------|
|------------------12-13----12-|
|---14-14-14-14-14--4--5-12--4-|
|----7--7--7--7--7--------5----|
|------------------------------|
|------------------------------|

|--------------------------------|------------------------------|
|--------------------------------|------------------12-13----12-|
|---14-14-14---14-12----12-------|---14-14-14-14-14--4--5-12--4-|
|----7--7--7----7--5-15--5-15-14-|----7--7--7--7--7--------5----|
|---------------------8-----8--7-|------------------------------|
|--------------------------------|------------------------------|

|--------------------------------|
|--------------------------------|
|---14-14-14---14-12----12-------|
|----7--7--7----7--5-15--5-15-14-|
|---------------------8-----8--7-|
|--------------------------------|
  
|------------------------------|---------------------------------|
|------------------12-13----12-|---------------------------------|
|---14-14-14-14-14--4--5-12--4-|---14-14-14---14-12----12--------|
|----7--7--7--7--7--------5----|----7--7--7----7--5-15--5-15-14--|
|------------------------------|---------------------8-----8--7--|
|------------------------------|---------------------------------|
 
|------------------------------|
|------------------12-13----12-|
|---14-14-14-14-14--4--5-12--4-|
|----7--7--7--7--7--------5----|
|------------------------------|
|------------------------------|
  
|--------------------------------|------------------------------|
|--------------------------------|------------------12-13----12-|
|---14-14-14---14-12----12-------|---14-14-14-14-14--4--5-12--4-|
|----7--7--7----7--5-15--5-15-14-|----7--7--7--7--7--------5----|
|---------------------8-----8--7-|------------------------------|
|--------------------------------|------------------------------|
  
|--------------------------------|
|--------------------------------|
|---14-14-14---14-12----12-------|
|----7--7--7----7--5-15--5-15-14-|
|---------------------8-----8--7-|
|--------------------------------|
  
|------------------------------|---------------------------------|
|------------------12-13----12-|---------------------------------|
|---14-14-14-14-14--4--5-12--4-|---14-14-14---14-12----12--------|
|----7--7--7--7--7--------5----|----7--7--7----7--5-15--5-15-14--|
|------------------------------|---------------------8-----8--7--|
|------------------------------|---------------------------------|
  
|------------------------------|
|------------------12-13----12-|
|---14-14-14-14-14--4--5-12--4-|
|----7--7--7--7--7--------5----|
|------------------------------|
|------------------------------|
  


                       
  
|--------------------------------|-5---------------------------|
|--------------------------------|---8-6-5---6-5-------5-------|
|---14-14-14---14-12----12-------|-2-------7-----7-6-----7-6---|
|----7--7--7----7--5-15--5-15-14-|---5-3-2---3-2-----8-2-----8-|
|---------------------8-----8--7-|---------5-----5-4-1---5-4-1-|
|--------------------------------|-----------------------------|
  

                               Gtrs IV, V
                         ~~~
  
|---------------------|-------------|-----------||
|---------------------|--------5----|-8---------||
|---7-6---------------|-------------|-7----7----||
|-7-----8-7-5----7b9r=|=(7)----7----|-5----4----||
|---5-4-1-----7-------|-------------|-----------||
|-5-------5-3-0--5b7r=|=(5)---------|-----------||
  


 Verse
  
  Gtrs I, II
 
|-------------|-----------|----------|-----------|
|-------------|-----------|----------|-----------|
|-2-----------|-10--------|-7--------|------9----|
|-2-----------|-10--------|-7--------|-5----9----|
|-0-------3/--|--8--------|-5--------|-5----7----|
|-------------|-----------|----------|-3---------|
|
| Gtrs IV, V
| 
|-------------|-----------|----------|-----------|
|-5-----------|--6--------|-7--------|-----------|
|-------------|-----------|----------|-----------|
|-2-----------|--3--------|-4--------|-----------|
|-------------|-----------|----------|-----------|
|-------------|-----------|----------|-----------|
 


   
    Gtrs I, II
    
||--------------|-----------|----------|------------||
||o-------------|-----------|----------|-----------o||
||--2-----------|-10--------|-7--------|------9-----||
||--2-----------|-10--------|-7--------|-5----9-----||
||o-0-------3/--|--8--------|-5--------|-5----7----o||
||--------------|-----------|----------|-3----------||


 Pre-Chorus
  
|-------------|--------------|-----------------|-------------------||
|-------------|--------------|-----------------|-------------------||
|-2-----------|-10-----------|-----------------|-----10-9-(9)------||
|-2-----------|-10-----------|-----------------|-----10-9-(9)------||
|-0-------2-3-|--8-------2-3-|-------------2-3-|------8-7-(7)--3---||
|-------------|--------------|-3-3-3-3-3-3-----|-3-3-------------3-||


 Chorus
  
|------------------------------|
|------------------12-13----12-|
|---14-14-14-14-14--4--5-12--4-|
|----7--7--7--7--7--------5----|
|------------------------------|
|------------------------------|
  
|--------------------------------|------------------------------|
|--------------------------------|------------------12-13----12-|
|---14-14-14---14-12----12-------|---14-14-14-14-14--4--5-12--4-|
|----7--7--7----7--5-15--5-15-14-|----7--7--7--7--7--------5----|
|---------------------8-----8--7-|------------------------------|
|--------------------------------|------------------------------|
  
|--------------------------------|
|--------------------------------|
|---14-14-14---14-12----12-------|
|----7--7--7----7--5-15--5-15-14-|
|---------------------8-----8--7-|
|--------------------------------|
  
|------------------------------|---------------------------------|
|------------------12-13----12-|---------------------------------|
|---14-14-14-14-14--4--5-12--4-|---14-14-14---14-12----12--------|
|----7--7--7--7--7--------5----|----7--7--7----7--5-15--5-15-14--|
|------------------------------|---------------------8-----8--7--|
|------------------------------|---------------------------------|
 
|------------------------------|
|------------------12-13----12-|
|---14-14-14-14-14--4--5-12--4-|
|----7--7--7--7--7--------5----|
|------------------------------|
|------------------------------|
 
  
|--------------------------------|------------------------------|
|--------------------------------|------------------12-13----12-|
|---14-14-14---14-12----12-------|---14-14-14-14-14--4--5-12--4-|
|----7--7--7----7--5-15--5-15-14-|----7--7--7--7--7--------5----|
|---------------------8-----8--7-|------------------------------|
|--------------------------------|------------------------------|
  
|--------------------------------|------------------------------|
|--------------------------------|------------------12-13----12-|
|---14-14-14---14-12----12-------|---14-14-14-14-14--4--5-12--4-|
|----7--7--7----7--5-15--5-15-14-|----7--7--7--7--7--------5----|
|---------------------8-----8--7-|------------------------------|
|--------------------------------|------------------------------|
  
|--------------------------------|--------------------------------|
|--------------------------------|------------------12-13----12---|
|---14-14-14---14-12----12-------|---14-14-14-14-14--4--5-12--4---|
|----7--7--7----7--5-15--5-15-14-|----7--7--7--7--7--------5------|
|---------------------8-----8--7-|--------------------------------|
|--------------------------------|--------------------------------|

|--------------------------------|
|--------------------------------|
|---14-14-14---14-12----12-------|
|----7--7--7----7--5-15--5-15-14-|
|---------------------8-----8--7-|
|--------------------------------|
  


 
|-5---------------------------|----------------------||
|---8-6-5---6-5-------5-------|----------------------||
|-2-------7-----7-6-----7-6---|---7-6----------------||
|---5-3-2---3-2-----8-2-----8-|-7-----8-7-5----7b9r==||
|---------5-----5-4-1---5-4-1-|---5-4-1-----7--------||
|-----------------------------|-5-------5-3-0--5b7r==||
  


 Guitar Solo 1
  N.C.
   ~~~~~~~~~~~~~~~~~~~~~
  
|-----------------|-----------------|---------------|---------------|
|-----------------|-----------------|---------------|---------------|
|-----------------|-----------------|---------------|---------------|
|-(7)-------------|-(7)-------------|---------------|---------------|
|-----------------|-----------------|---------------|---------------|
|-(5)-------------|-(5)-------------|---------------|---------------|
| 
|
| Gtrs IV, V
|    
| 
|-----------------|-----------------|---------------|---------------|
|--5--5----7-7--7-|--5--5----7-7--7-|-5-5----7-7--7-|-5-5----7-7--7-|
|--5--5----7-7--7-|--5--5----7-7--7-|-5-5----7-7--7-|-5-5----7-7--7-|
|-----------------|-----------------|---------------|---------------|
|-----------------|-----------------|---------------|---------------|
|-----------------|-----------------|---------------|---------------|


  Gtrs IV, V
 
|---------------|---------------|---------------|---------------------||
|-5-5----7-7--7-|-5-5----7-7--7-|-5-5----7-7--5-|-7b8r=(7)b8r=(7)s==5-||
|-5-5----7-7--7-|-5-5----7-7--7-|-5-5----7-7--5-|-7b8r=(7)b8r=(7)s==5-||
|---------------|---------------|---------------|---------------------||
|---------------|---------------|---------------|---------------------||
|---------------|---------------|---------------|---------------------||


 Interlude

|-----------------|-----------------|----0-3s5-3-------|------------------|
|-----------------|-----------------|----3-------5s3p1-|-1h3----1-3s5-3-1-|
|-----------------|-----------------|----2-------------|------2-----------|
|---2-3-2s7-------|---2-3-2s7-------|------------------|------------------|
|-0---------7-----|-----------7---0-|------------------|------------------|
|-------------8-7-|-3-----------8---|-2----------------|------------------|


  
|-----------------|-------------------|-------------------|---------3----||
|-----------------|-------------------|-------------------|-------3------||
|-----------------|-------------------|-------------------|-----5--------||
|---2-3-2s7-------|---2-3-2s7---------|---2-3-2s7---------|---4----------||
|-----------7---1-|-2---------7-5-3-2-|-3---------7-6p5p3-|-5------------||
|-------------8---|-------------------|-------------------|--------------||


 Guitar Solo 2
  
|-----------------|---------------------|
|----5------------|------5--------------|
|------7-(7)------|--------7-(7)--------|
|-7-----------5-7-|-(7)-----------7p5---|
|-----------------|-------------------8-|
|-----------------|---------------------|
|
| Gtr V
|
|----8-7-(7)------|------8-7-(7)--------|
|-------------5-6-|-(6)-----------6p5---|
|-----------------|-------------------7-|
|-7---------------|---------------------|
|-----------------|---------------------|
|-----------------|---------------------|


  
|-------------------|---------------------|
|------5------------|------6-5-(5)--8-10--|
|--------7-(7)--5-4-|-(4)-----------------|
|-------------------|---------------------|
|-(8)---------------|---------------------|
|-------------------|---------------------|
|
|
|------8-7-(7)--5---|------5--------7--5--|
|-----------------8-|-(8)----9-(9)--------|
|-(7)---------------|---------------------|
|-------------------|---------------------|
|-------------------|---------------------|
|-------------------|---------------------|


  
|--------------------|---------------------|
|-(10)--5------------|------5--------------|
|---------7-(7)------|--------7-(7)--------|
|----------------5-7-|-(7)-----------7p5---|
|--------------------|-------------------8-|
|--------------------|---------------------|
|
| 
|--(5)--8-7-(7)------|------8-7-(7)--------|
|----------------5-6-|-(6)-----------6p5---|
|--------------------|-------------------7-|
|--------------------|---------------------|
|--------------------|---------------------|
|--------------------|---------------------|


  
|-------------------|---------------------|
|------5------------|------6-5-(5)--8-10--|
|--------7-(7)--5-4-|-(4)-----------------|
|-------------------|---------------------|
|-(8)---------------|---------------------|
|-------------------|---------------------|
|
| 
|------8-7-(7)--5---|------5--------7--5--|
|-----------------8-|-(8)----9-(9)--------|
|-(7)---------------|---------------------|
|-------------------|---------------------|
|-------------------|---------------------|
|-------------------|---------------------|


   
|-------12----------------|-------12-------------------|
|-(10)-----15-(15)--------|----------15-(15)-----------|
|-------------------12-14-|-(14)--------------14p12----|
|-------------------------|-------------------------15-|
|-------------------------|----------------------------|
|-------------------------|----------------------------|
|
|  
|--(5)---8--7--(7)--------|--------8--7--(7)-----------|
|--------------------5--6-|--(6)---------------6p=5----|
|-------------------------|--------------------------7-|
|-------------------------|----------------------------|
|-------------------------|----------------------------|
|-------------------------|----------------------------|


   
|-------12----------------|-------13-12-(12)--15-17--|
|----------15-(15)--13-12-|-(12)---------------------|
|-------------------------|--------------------------|
|-(15)--------------------|--------------------------|
|-------------------------|--------------------------|
|-------------------------|--------------------------|
|
|  
|--------8--7--(7)---5----|--------5-----------7--5--|
|-----------------------8-|--(8)------9--(9)---------|
|--(7)--------------------|--------------------------|
|-------------------------|--------------------------|
|-------------------------|--------------------------|
|-------------------------|--------------------------|


  
|-(17)--12----------------|
|----------15-(15)--------|
|-------------------12-14-|
|-------------------------|
|-------------------------|
|-------------------------|
|
|  
|--(5)---8--7--(7)--------|
|--------------------5--6-|
|-------------------------|
|-------------------------|
|-------------------------|
|-------------------------|


  
|-------12-------------------|-------12-----------------|
|----------15-(15)-----------|----------15-(15)--13-12--|
|-(14)--------------14p12----|--------------------------|
|-------------------------15-|-(15)---------------------|
|----------------------------|--------------------------|
|----------------------------|--------------------------|
|
|  
|--------8--7--(7)-----------|--------8--7--(7)---5-----|
|--(6)---------------6p=5----|-----------------------8--|
|--------------------------7-|--(7)---------------------|
|----------------------------|--------------------------|
|----------------------------|--------------------------|
|----------------------------|--------------------------|


                            II                   
|-------------------------||---------------------------------|
|-------------------------||---------------------12-13----12-|
|-------------------------||------14-14-14-14-14--4--5-12--4-|
|-------------------------||-------7--7--7--7--7--------5----|
|-------------------------||---------------------------------|
|-------------------------||---------------------------------|
|                              
|
| 
|-------13-12-(12)--15-17-||-(17)----------------------------|
|-(12)--------------------||---------------------------------|
|-------------------------||---------------------------------|
|-------------------------||---------------------------------|
|-------------------------||---------------------------------|
|-------------------------||---------------------------------|
|
| 
|--------5-----------7--5-||--(5)----------------------------|
|--(8)------9--(9)--------||---------------------------------|
|-------------------------||---------------------------------|
|-------------------------||---------------------------------|
|-------------------------||---------------------------------|
|-------------------------||---------------------------------|


          
|------------------------------------|
|------------------------------------|
|------14-14-14---14-12----12--------|
|-------7--7--7----7--5-15--5-15-14--|
|------------------------8-----8--7--|
|------------------------------------|
|   
|
|  
|-(17)-------------------------------|
|------------------------------------|
|------------------------------------|
|------------------------------------|
|------------------------------------|
|------------------------------------|
|
|  
|--(5)-------------------------------|
|------------------------------------|
|------------------------------------|
|------------------------------------|
|------------------------------------|
|------------------------------------|


                                                                   
|-5---------------------------|---------------------|---------|---------0----*|
|---8-6-5---6-5-------5-------|---------------------|---------|-------0------*|
|-2-------7-----7-6-----7-6---|---7-6---------------|---------|-----5--------*|
|---5-3-2---3-2-----8-2-----8-|-7-----8-7-5----7b9r=|=(7)-----|---7----------*|
|---------5-----5-4-1---5-4-1-|---5-4-1-----7-------|---------|-0------------*|
|-----------------------------|-5-------5-3-0--5b7r=|=(5)-----|--------------*|
Calificar esta versión:
Aviso: Este fichero es trabajo propio de su transcriptor y representa su interpretación personal de la canción. El material contenido en esta página es para exclusivo uso privado, por lo que se prohibe su reproducción o retransmisión, así como su uso para fines comerciales.