Coming Home, Megadeth (tablatura)

Autor: chicometal | 20720 visualizaciones

verso 1
E|-----------------------------------------------------------------------------------------|
B|-------0-------0-------0-------0-------0-------0---------0-------0-------0------0------0-|
G|---0-0-----0-0-----0-0-----0-0-----0-0-----0-0-------0-0-----0-0-----0-0----0-0-----0-0--|
D|-5-------5-------4-------4-------2-------2-------2/5-------4-------5------5-------4------|
A|-----------------------------------------------------------------------------------------|
E|-----------------------------------------------------------------------------------------|

                                                  X3 
E|--------------------------------------------------|-------------------------------------|
B|-------0-------0-------0------0-------0---------0-|-------0-------0-------0-------0-----|
G|---0-0-----0-0-----0-0-----0-0----0-0-------0-0---|---0-0-----0-0-----0-0-----0-0-------|
D|-4-------2-------2-------1------1-------1/5-------|---------1---------------1-----------|
A|--------------------------------------------------|-3---------------3-------------------|
E|--------------------------------------------------|-------------------------------------|

SOLO
E|------3---3-----------3-------------------------------------------------------------------------|
B|----0-------0-------0---------0-------0---0-----------0---0---0-------0-------0-------0-------0-|
G|--0-----0-----0-----------0-------0-----------0---0---------0-----0-------0-------0-------0-----|
D|----------------------------4-------0-------1-----------------------0-------2-------2-------0---|
A|-2--------------------------------------------------------------------------------------3-------|
E|----------------2/3-----3-------1-------1-------0---1---0-------3-------3-------3---------------|

E|---------------------------------------------------------------------------------------------|
B|---------0-------0-------0-------0-------0-------0---------0-------0-------0-------0------0--|
G|-----0-0-----0-0-----0-0-----0-0-----0-0-----0-0-------0-0-----0-0-----0-0-----0-0-----0-0---|
D|-2/5-------5-------4-------4-------2-------2-------2/5-------4-------5-------5-------4-------|
A|---------------------------------------------------------------------------------------------|
E|---------------------------------------------------------------------------------------------|

E|--------------------------------------------------|-------------------------------------|------3--|
B|-------0-------0-------0------0-------0---------0-|-------0-------0-------0-------0-----|----0----|
G|---0-0-----0-0-----0-0-----0-0----0-0-------0-0---|---0-0-----0-0-----0-0-----0-0-------|--0------|
D|-4-------2-------2-------1------1-------1/5-------|---------1---------------1-----------|---------|
A|--------------------------------------------------|-3---------------3-------------------|-2-------|
E|--------------------------------------------------|-------------------------------------|---------|

E|---3-----------3----------------------------------------------0----------------------------------3--|
B|-----0-------0--------0-------0---0-----------0---0---0---0----------0-------0-0---------------0----|
G|-O-----0----------0-------0-----------0---0---------0-------0----0-------0-------0-----------0------|
D|--------------------4-------0-------1------------------------------2-------2-------2-------X--------|
A|-------------------------------------------------------------------------------------3---X----------|
E|---------2/3-----3------1-------1-------0---1---0-------3-------3------3---------------3------------|
Calificar esta versión:
Aviso: Este fichero es trabajo propio de su transcriptor y representa su interpretación personal de la canción. El material contenido en esta página es para exclusivo uso privado, por lo que se prohibe su reproducción o retransmisión, así como su uso para fines comerciales.