Architecture Of Aggression, Megadeth (tablatura)

Autor: gaby-argento | 29380 visualizaciones

Architecture Of Aggression

Intro
-----------------------------------------------------------------
-----------------------------------------------------------------
-----------------------------------------------------------------
-----------------------------------------------------------------
--------------7-8-7-------4-5-4---------------7-8-7-----0-22-----
0-2-0-3-0-2-0-5-6-5-0-2-0-2-3-2-0-2-0-3-0-2-0-5-6-5-0-2-----5220-

Verse
-----------------------------------------------------------------
-----------------------------------------------------------------
-----------------------------------------------------------------
-----------------------------------------------------------------
-------------7-8-7-------4-5-4---------------7-8-7-----0-22-----
-2-0-3-0-2-0-5-6-5-0-2-0-2-3-2-0-2-0-3-0-2-0-5-6-5-0-2-----5220-

Chorus
-----------------------------------------------------------------
-----------------------------------------------------------------
-----4-4-----4-4-----4-4-----4-4-----4-4-----4-4-----4-4---------
-------------------------0h2-------------------------------2-4---
-0h2-----2h3-----3h5-------------0h2-----2h3-----3h5-----2-----3-
-----------------------------------------------------------------

-----------------------------------------------------------------
-----------------------------------------------------------------
-----------------------------------------------------------------
-----4-4-----4-4-----4-------4-----------------------------------
-2h4-----4h5-----5h7---7-4h5---5---------------------------------
-----------------------------------------------------------------

Interlude
-----------------------------------------------------------------
--------------------------------------------8-7-6\5--------------
--------------------------------------------7-6-5\4--------------
--------------------------------------------5-4-3\2--------------
-----------------5-4-3-------------------------------------------
-2-3-2-0-5-7-5---------5-2-0-2-3-2-0-5-7-5----------2-0----------
Calificar esta versión:
Aviso: Este fichero es trabajo propio de su transcriptor y representa su interpretación personal de la canción. El material contenido en esta página es para exclusivo uso privado, por lo que se prohibe su reproducción o retransmisión, así como su uso para fines comerciales.