U Can´t Touch This (intro), Mc Hammer (tablatura)

Autor: abelgrox | 38114 visualizaciones

e|--------------------------------------------------------------
B|--------------------------------------------------------------
G|--------------------------------------------------------------
D|--------------------------------------------------------------
A|--0-5-3-3-0-0-0-----2-0---------------------------------------
E|----------------0-3-------------------------------------------

Luego sigue sin la 5ta cuerda al aire(como en la siguiente)
Nota: La primero se la toca solo una vez...

e|--------------------------------------------------------------
B|--------------------------------------------------------------
G|--------------------------------------------------------------
D|--------------------------------------------------------------
A|--5-3-3-0-0-0-----2-0-----------------------------------------
E|--------------0-3---------------------------------------------


╔═══╗ ♪ 
║███║ ♫
║(●)║

★█║▌│ █│║▌ ║││█║▌ │║║█║
★τσdσs lσs Dεяεcнσs яεsεяvαdσs.
★cσρчяιgнτ ©2008
★||αямч ||αbεlgяσx

Por cualquier consulta, Mi correo: abelemolina@hotmail.com


Calificar esta versión:
Aviso: Este fichero es trabajo propio de su transcriptor y representa su interpretación personal de la canción. El material contenido en esta página es para exclusivo uso privado, por lo que se prohibe su reproducción o retransmisión, así como su uso para fines comerciales.