What´s Up People, Maximum The Hormone (tablatura)

Autor: maximum_the_ryu | 44511 visualizaciones



Introduccion X4

D|-------------------------------------------|
A|-------------------------------------------|
F|-------------------------------------------|
C|--3-4-0-3-0-3-4-0-3-0-3-4-0-3-0-3--0-0-0---|
G|-----------------------------------0-0-0---| 
C|-----------------------------------0-0-0---|

la parte del grito X2

D|--------------------------------------------------------------------------------|
A|--------------------------------------------------------------------------------|
F|--------------------------------------------------------------------------------|  
C|---3-4-3--0-3-4-3---0-3-4-3---0-3-4-3-----0-3-4-3--0-3-4-3---0-3-4-3---0-3-4-3--|     
G|---3-4-3--0-3-4-3---0-3-4-3---0-3-4-3-----0-3-4-3--0-3-4-3---0-3-4-3---0-3-4-3--|
C|---3-4-3--0-3-4-3---0-3-4-3---0-3-4-3-----0-3-4-3--0-3-4-3---0-3-4-3---0-3-4-3--|

estrofa Guitarrista X4

D|-----------------------------------------------|
A|-----------------------------------------------|
F|-----------------------------------------------|
C|-0-0-0-0---0--0-0-0-0--0--0-0-0-0--0--3-0-3-2--| 
G|-0-0-0-0---0--0-0-0-0--0--0-0-0-0--0--3-0-3-2--|
C|-0-0-0-0---0--0-0-0-0--0--0-0-0-0--0--3-0-3-2--|

What\'s up fuanzai.... X2

D|--------------------------------------------------------------------------------|
A|--------------------------------------------------------------------------------|
F|--------------------------------------------------------------------------------|  
C|---3-4-3--0-3-4-3---0-3-4-3---0-3-4-3-----0-3-4-3--0-3-4-3---0-3-4-3---0-3-4-3--|     
G|---3-4-3--0-3-4-3---0-3-4-3---0-3-4-3-----0-3-4-3--0-3-4-3---0-3-4-3---0-3-4-3--|
C|---3-4-3--0-3-4-3---0-3-4-3---0-3-4-3-----0-3-4-3--0-3-4-3---0-3-4-3---0-3-4-3--|

estrofa 2 del Guitarrista x 4

D|-----------------------------------------------|
A|-----------------------------------------------|
F|-----------------------------------------------|
C|-0-0-0-0---0--0-0-0-0--0--0-0-0-0--0--3-0-3-2--| 
G|-0-0-0-0---0--0-0-0-0--0--0-0-0-0--0--3-0-3-2--|
C|-0-0-0-0---0--0-0-0-0--0--0-0-0-0--0--3-0-3-2--|

What\'s up fuanzai... X2

D|--------------------------------------------------------------------------------|
A|--------------------------------------------------------------------------------|
F|--------------------------------------------------------------------------------|   
C|---3-4-3--0-3-4-3---0-3-4-3---0-3-4-3-----0-3-4-3--0-3-4-3---0-3-4-3---0-3-4-3--|     
G|---3-4-3--0-3-4-3---0-3-4-3---0-3-4-3-----0-3-4-3--0-3-4-3---0-3-4-3---0-3-4-3--|
C|---3-4-3--0-3-4-3---0-3-4-3---0-3-4-3-----0-3-4-3--0-3-4-3---0-3-4-3---0-3-4-3--|
 
hey hey ningen sucker ah ningen nigen fucker X 4

D|---------------------------------------|
A|---------------------------------------|
F|---------------------------------------|
C|-0-0-0-0-3-3-3-3-5-5-5-5-6-6-5-3-------| 
G|-0-0-0-0-3-3-3-3-5-5-5-5-6-6-5-3-------|
C|-0-0-0-0-3-3-3-3-5-5-5-5-6-6-5-3-------|

hey hey ningen sucker , hey hey ningen fucker X 4

D|---------------------------------------|
A|---------------------------------------|
F|-7-7-7-7---------------------5-5-------|
C|-7-7-7-7-3-3-3-3-5-5-5-5-6-6-5-5-------|
G|-5-5-5-5-3-3-3-3-5-5-5-5-6-6-3-3-------|
C|---------3-3-3-3-5-5-5-5-6-6-----------|

interlubio X4

D|-------------------------------------|
A|-------------------------------------|
F|-------------------------------------|    
C|-0-0-3-0-3-0--0-3-0-3-0----0-3-5-----|
G|-0-0-3-0-3-0--0-3-0-3-0----0-3-5-----|
C|-0-0-3-0-3-0--0-3-0-3-0----0-3-5-----|

The world it\'s in warning... X 4

D|--------------------------------------------------------------------------------|
A|--------------------------------------------------------------------------------|
F|--------------------------------------------------------------------------------|  
C|---3-4-3--0-3-4-3---0-3-4-3---0-3-4-3-----0-3-4-3--0-3-4-3---0-3-4-3---0-3-4-3--|     
G|---3-4-3--0-3-4-3---0-3-4-3---0-3-4-3-----0-3-4-3--0-3-4-3---0-3-4-3---0-3-4-3--|
C|---3-4-3--0-3-4-3---0-3-4-3---0-3-4-3-----0-3-4-3--0-3-4-3---0-3-4-3---0-3-4-3--|

estrofa guitarrista X4

D|-----------------------------------------------|
A|-----------------------------------------------|
F|-----------------------------------------------|
C|-0-0-0-0---0--0-0-0-0--0--0-0-0-0--0--3-0-3-2--| 
G|-0-0-0-0---0--0-0-0-0--0--0-0-0-0--0--3-0-3-2--|
C|-0-0-0-0---0--0-0-0-0--0--0-0-0-0--0--3-0-3-2--|

What\'s up fuanzai.... X2

D|--------------------------------------------------------------------------------|
A|--------------------------------------------------------------------------------|
F|--------------------------------------------------------------------------------|  
C|---3-4-3--0-3-4-3---0-3-4-3---0-3-4-3-----0-3-4-3--0-3-4-3---0-3-4-3---0-3-4-3--|    
G|---3-4-3--0-3-4-3---0-3-4-3---0-3-4-3-----0-3-4-3--0-3-4-3---0-3-4-3---0-3-4-3--|
C|---3-4-3--0-3-4-3---0-3-4-3---0-3-4-3-----0-3-4-3--0-3-4-3---0-3-4-3---0-3-4-3--|

HEY HEY ningen sucker a ningen nigen fucker... X4

D|---------------------------------------|
A|---------------------------------------|
F|---------------------------------------|
C|-0-0-0-0-3-3-3-3-5-5-5-5-6-6-5-3-------|
G|-0-0-0-0-3-3-3-3-5-5-5-5-6-6-5-3-------|
C|-0-0-0-0-3-3-3-3-5-5-5-5-6-6-5-3-------|

hey hey ningen sucker , hey hey ningen fucker.... X4

D|---------------------------------------|
A|---------------------------------------|
F|-7-7-7-7---------------------5-5-------|  
C|-7-7-7-7-3-3-3-3-5-5-5-5-6-6-5-5-------|
G|-5-5-5-5-3-3-3-3-5-5-5-5-6-6-3-3-------|
C|---------3-3-3-3-5-5-5-5-6-6-----------|

INTERLUBIO parte 2 X4

D|---------------------------------|
A|---------------------------------|
F|---------------------------------|
C|-0---0-0-3-0--3--0---0-3-0-5-6---|   
G|-0---0-0-3-0--3--0---0-3-0-5-6---|
C|-0---0-0-3-0--3--0---0-3-0-5-6---|

 ha dukina , setsu ... X4

D|---------------------------------|
A|---------------------------------|
F|---------------------------------|
C|-0---0-3-0--3--0--0-0-3-0-5-6----| 
G|-0---0-3-0--3--0--0-0-3-0-5-6----|
C|-0---0-3-0--3--0--0-0-3-0-5-6----|

ha dukina ka... X1

D|--------------------|
A|--------------------|
F|--------------------|
C|-0---0-3-0---0------|   
G|-0---0-3-0---0------|
C|-0---0-3-0---0------|

manuboke no seasu... X4

D|---------------------------------|
A|---------------------------------|
F|---------------------------------|
C|---------------------------------| 
G|------5---5----------------------|
C|0---0---0---0--0-3-0-3-5---------|


hey hey ningen sucker ah ningen nigen fucker X7

D|---------------------------------------|
A|---------------------------------------|
F|---------------------------------------|
C|-0-0-0-0-3-3-3-3-5-5-5-5-6-6-5-3-------| 
G|-0-0-0-0-3-3-3-3-5-5-5-5-6-6-5-3-------|
C|-0-0-0-0-3-3-3-3-5-5-5-5-6-6-5-3-------|

What\'s up people! X4

D|--------------------------------------|
A|--------------------------------------|
F|--------------------------------------|
C|-0-0-3-0-5-0-3-0-0-0-3-0-5-0-6-0------|  
G|-0-0-3-0-5-0-3-0-0-0-3-0-5-0-6-0------|
C|-0-0-3-0-5-0-3-0-0-0-3-0-5-0-6-0------|


y cuando el guitarrista grita cualquier cosa... es al azar XD

D|--------------------------------------|
A|--------------------------------------|
F|--------------------------------------|
C|-0------------------------------------|
G|-0------------------------------------|
C|-0------------------------------------|






Comentarios del colaborador: aki dejo mi primer aporte , ojala les aya gustado , les subire mas de maximum the hormone

Calificar esta versión:
Aviso: Este fichero es trabajo propio de su transcriptor y representa su interpretación personal de la canción. El material contenido en esta página es para exclusivo uso privado, por lo que se prohibe su reproducción o retransmisión, así como su uso para fines comerciales.