Koi No Mega Lover, Maximum The Hormone (tablatura)

Autor: maximum_the_ryu | 39837 visualizaciones



D|-------------------------------------------|
A|-------------------------------------------|
F|-------------------------------------------|
C|-10-10----8-8-10-10-10---------------------|
G|-10-10----8-8-10-10-10---------------------| 
C|-10-10----8-8-10-10-10---------------------|

D|----------------------------------------------|
A|----------------------------------------------|
F|----------------------------------------------|
C|-8-8-10-10-10--------------------------------|
G|-8-8-10-10-10---------------------------------| 
C|-8-8-10-10-10-10-10-10-10-10-10-10-10-10-10---|

D|-----------------------------------------------------------|
A|-----------------------------------------------------------|
F|-----------------------------------------------------------|
C|-8-8-10-10-10-------------------10-10-10-10----------------|
G|-8-8-10-10-10-------------------10-10-10-10----------------| 
C|-8-8-10-10-10-10-10-10-10-10-10-10-10-10-10----------------|

D|-------------------------------------------|
A|-------------------------------------------|
F|-------------------------------------------| x3
C|-8-8--10-10--8--8--7-7-7-------------------|
G|-8-8--10-10-10-10--5-5-5-------------------| 
C|-8-8--10-10--------------------------------|

D---------------------10------10--12-10--------------|
A|-------------------------12------------12----------|
F|---------------------------------------------------|
C|-8-8--10-10--10------------------------------------|
G|-8-8--10-10--8-------------------------------------| 
C|-8-8--10-10----------------------------------------|

D|-------------------------------------------|
A|-------------------------------------------|
F|-------------------------------------------| x3
C|-8-8--10-10--8--8--7-7-7-------------------|
G|-8-8--10-10-10-10--5-5-5-------------------| 
C|-8-8--10-10--------------------------------|

D--------------------|
A|-------------------|
F|-------------------|
C|-8-8--10-10--10----|
G|-8-8--10-10--8-----| 
C|-8-8--10-10--------|


D|---------------------------------------------------|
A|---------------------------------------------------|
F|---------------------------------------------------|x4
C|-0-3--0-3--0-3--0-3-5-6----------------------------|
G|-0-3--0-3--0-3--0-3-5-6----------------------------| 
C|-0-3--0-3--0-3--0-3-5-6----------------------------|

D|---------------------------------------------------|
A|---------------------------------------------------|
F|---------------------------------------------------| X2
C|-0-0--6-5-3-x3-0--0-3-0-3-5-6----------------------|
G|-0-0--6-5-3----0--0-3-0-3-5-6----------------------| 
C|-0-0--6-5-3----0--0-3-0-3-5-6----------------------|

D|---------------------------------------------------|
A|---------------------------------------------------|
F|---------------------------------------------------|
C|-0-0-3-0-3-5-6-x3--5-3--5-3------------------------|x2
G|-0-0-3-0-3-5-6-----5-3--5-3------------------------| 
C|-0-0-3-0-3-5-6-----5-3--5-3------------------------|

D|---------------------------------------------------|
A|---------------------------------------------------|
F|---------------------------------------------------| X2
C|-0-0--6-5-3-x3-0--0-3-0-3-5-6----------------------|
G|-0-0--6-5-3----0--0-3-0-3-5-6----------------------| 
C|-0-0--6-5-3----0--0-3-0-3-5-6----------------------|

D|---------------------------------------------------|
A|---------------------------------------------------|
F|---------------------------------------------------| 
C|-0-0--6-5-3-x3-0--0-3-0-3-5-6----------------------|
G|-0-0--6-5-3----0--0-3-0-3-5-6----------------------| 
C|-0-0--6-5-3----0--0-3-0-3-5-6----------------------|


D|---------------------------------------------------|
A|---------------------------------------------------|
F|---------------------------------------------------| 
C|-0-0--6-5-3-x3-0--0-3-0-3-5------------------------|
G|-0-0--6-5-3----0--0-3-0-3-5------------------------| 
C|-0-0--6-5-3----0--0-3-0-3-5------------------------|


D|-----------------------------------------------------------------|
A|-----------------------------------------------------------------|X2
F|-----------------------------------------------------------------| 
C|-----------------------------------------------------------------|
G|-----------------------------------------------------------------| 
C|-5-5-5-5-5-5-5-5-3-3-3-3-3-3-3-3-5-5-5-5-5-5-5-5-7-7-7-7-7-7-7-7-|


D|-------------------------------------------------------------------------------|
A|-------------------------------------------------------------------------------|
F|-------------------------------------------------------------------------------|X2 
C|-------------------------------------------------------------------------------|
G|-8-8-6-6--7-x-7-x--7-7-5-5--6-x-6-x--6-6-6-6--8--8-8-8--10---10-10--10---------| 
C|-8-8-6-6--5-x-5-x--7-7-5-5--4-x-4-x--4-4-4-4--6--6-6-6---8----8--8---8---------|

D|---------------------------------------------------|
A|---------------------------------------------------|
F|---------------------------------------------------| 
C|---------------------------------------------------| X2
G|-55555555555555555---9--7-7--9--7-7----------------| 
C|-55555555555555555---7--5-5--7--5-5----------------|

D|---------------------------------------------------|
A|---------------------------------------------------|
F|---------------------------------------------------| 
C|---------------------------------------------------| 
G|--6--8--10---8-6-8--6--4---------------------------| 
C|--4--6---8---6-4-6--4--2---------------------------|

D|---------------------------------------------------|
A|---------------------------------------------------|
F|---------------------------------------------------| 
C|---------------------------------------------------| 
G|-66666666666666668888888888888---------------------| 
C|-44444444444444446666666666666---------------------|

D|-------------------------------------------|
A|-------------------------------------------|
F|-------------------------------------------| x3
C|-8-8--10-10--8--8--7-7-7-------------------|
G|-8-8--10-10-10-10--5-5-5-------------------| 
C|-8-8--10-10--------------------------------|

D---------------------10------10--12-10--------------|
A|-------------------------12------------12----------|
F|---------------------------------------------------|
C|-8-8--10-10--10------------------------------------|
G|-8-8--10-10--8-------------------------------------| 
C|-8-8--10-10----------------------------------------|

D|-------------------------------------------|
A|-------------------------------------------|
F|-------------------------------------------| x3
C|-8-8--10-10--8--8--7-7-7-------------------|
G|-8-8--10-10-10-10--5-5-5-------------------| 
C|-8-8--10-10--------------------------------|

D--------------------|
A|-------------------|
F|-------------------|
C|-8-8--10-10--10----|
G|-8-8--10-10--8-----| 
C|-8-8--10-10--------|


D|---------------------------------------------------|
A|---------------------------------------------------|
F|---------------------------------------------------|x4
C|-0-3--0-3--0-3--0-3-5-6----------------------------|
G|-0-3--0-3--0-3--0-3-5-6----------------------------| 
C|-0-3--0-3--0-3--0-3-5-6----------------------------|

D|---------------------------------------------------|
A|---------------------------------------------------|
F|---------------------------------------------------| X2
C|-0-0--6-5-3-x3-0--0-3-0-3-5-6----------------------|
G|-0-0--6-5-3----0--0-3-0-3-5-6----------------------| 
C|-0-0--6-5-3----0--0-3-0-3-5-6----------------------|

D|---------------------------------------------------|
A|---------------------------------------------------|
F|---------------------------------------------------|
C|-0-0-3-0-3-5-6-x3--5-3--5-3------------------------|x2
G|-0-0-3-0-3-5-6-----5-3--5-3------------------------| 
C|-0-0-3-0-3-5-6-----5-3--5-3------------------------|

D|---------------------------------------------------|
A|---------------------------------------------------|
F|---------------------------------------------------| X2
C|-0-0--6-5-3-x3-0--0-3-0-3-5-6----------------------|
G|-0-0--6-5-3----0--0-3-0-3-5-6----------------------| 
C|-0-0--6-5-3----0--0-3-0-3-5-6----------------------|

D|---------------------------------------------------|
A|---------------------------------------------------|
F|---------------------------------------------------| 
C|-0-0--6-5-3-x3-0--0-3-0-3-5-6----------------------|
G|-0-0--6-5-3----0--0-3-0-3-5-6----------------------| 
C|-0-0--6-5-3----0--0-3-0-3-5-6----------------------|


D|---------------------------------------------------|
A|---------------------------------------------------|
F|---------------------------------------------------| 
C|-0-0--6-5-3-x3-0--0-3-0-3-5------------------------|
G|-0-0--6-5-3----0--0-3-0-3-5------------------------| 
C|-0-0--6-5-3----0--0-3-0-3-5------------------------|


D|-----------------------------------------------------------------|
A|-----------------------------------------------------------------|X2
F|-----------------------------------------------------------------| 
C|-----------------------------------------------------------------|
G|-----------------------------------------------------------------| 
C|-5-5-5-5-5-5-5-5-3-3-3-3-3-3-3-3-5-5-5-5-5-5-5-5-7-7-7-7-7-7-7-7-|


D|-------------------------------------------------------------------------------|
A|-------------------------------------------------------------------------------|
F|-------------------------------------------------------------------------------|X2 
C|-------------------------------------------------------------------------------|
G|-8-8-6-6--7-x-7-x--7-7-5-5--6-x-6-x--6-6-6-6--8--8-8-8--10---10-10--10---------| 
C|-8-8-6-6--5-x-5-x--7-7-5-5--4-x-4-x--4-4-4-4--6--6-6-6---8----8--8---8---------|

D|---------------------------------------------------|
A|---------------------------------------------------|
F|---------------------------------------------------| 
C|---------------------------------------------------| X2
G|-55555555555555555---9--7-7--9--7-7----------------| 
C|-55555555555555555---7--5-5--7--5-5----------------|

D|---------------------------------------------------|
A|---------------------------------------------------|
F|---------------------------------------------------| 
C|---------------------------------------------------| 
G|--6--8--10---8-6-8--6--4---------------------------| 
C|--4--6---8---6-4-6--4--2---------------------------|

D|---------------------------------------------------|
A|---------------------------------------------------|
F|---------------------------------------------------| 
C|---------------------------------------------------| 
G|-66666666666666668888888888888---------------------| 
C|-44444444444444446666666666666---------------------|

D|-------------------------------------------|
A|-------------------------------------------|
F|-------------------------------------------| x3
C|-8-8--10-10--8--8--7-7-7-------------------|
G|-8-8--10-10-10-10--5-5-5-------------------| 
C|-8-8--10-10--------------------------------|

D---------------------10------10--12-10--------------|
A|-------------------------12------------12----------|
F|---------------------------------------------------|
C|-8-8--10-10--10------------------------------------|
G|-8-8--10-10--8-------------------------------------| 
C|-8-8--10-10----------------------------------------|

D|-------------------------------------------|
A|-------------------------------------------|
F|-------------------------------------------| x3
C|-8-8--10-10--8--8--7-7-7-------------------|
G|-8-8--10-10-10-10--5-5-5-------------------| 
C|-8-8--10-10--------------------------------|

D--------------------|
A|-------------------|
F|-------------------|
C|-8-8--10-10--10----|
G|-8-8--10-10--8-----| 
C|-8-8--10-10--------|

D|----8-10-----8--12-11-----14-13----9-11--11-9------9--------------------|
A|-10-------10----------13--------11-------------11-----11-9-8------------|
F|------------------------------------------------------------------------| 
C|------------------------------------------------------------------------|
G|------------------------------------------------------------------------| 
C|------------------------------------------------------------------------|

D|----8-10-----8--11--10-----13-12----9--11--11-9----9----------|
A|-10-------10-----------11--------11-------------11---11-9-8---|
F|--------------------------------------------------------------| 
C|--------------------------------------------------------------|
G|--------------------------------------------------------------| 
C|--------------------------------------------------------------|

D|-------------------------------------------|
A|-------------------------------------------|
F|-------------------------------------------|
C|-10-10----8-8-10-10-10---------------------|
G|-10-10----8-8-10-10-10---------------------| 
C|-10-10----8-8-10-10-10---------------------|

D|----------------------------------------------|
A|----------------------------------------------|
F|----------------------------------------------|
C|-8-8-10-10-10--------------------------------|
G|-8-8-10-10-10---------------------------------| 
C|-8-8-10-10-10-10-10-10-10-10-10-10-10-10-10---|

D|-------------------------------------------|
A|-------------------------------------------|
F|-------------------------------------------|
C|-8-8-----10-x-10-x-10-x----10--10--10-------------|
G|-8-8-----10-x-10-x-10-x----10--10--10-------------| 
C|-8-8-----10-x-10-x-10-x----10--10--10-------------|















Comentarios del colaborador: lo sake al oido asi q no estoy al 100 seguro

Calificar esta versión:
Aviso: Este fichero es trabajo propio de su transcriptor y representa su interpretación personal de la canción. El material contenido en esta página es para exclusivo uso privado, por lo que se prohibe su reproducción o retransmisión, así como su uso para fines comerciales.