Cancion De Las Muñecas, Massacre (tablatura)

Autor: outcesticide | 29009 visualizaciones



e----------------------------------------------------------------
B----------------------------------------------------------------
G-0-0-0-0-0-0-0-0-0-------0-0---0-0-------------0-0---0-0--------
D----------------------------------------------------------------
A--8-8-8-7-7-7-5-5-55----8-8-8-7-7-7-5-----5-7-8-8-8-7-7-7-5---5-
E--------------------------------------5----------------------5--

e----------------------------------------------------------------
B----------------------------------------------------------------
G--0-0---0-0----------------0-0---0-0---------------------------
D----------------------------------------------------------------
A-8-8-8-7-7-7-5--------5-7-8-8-8-7-7-7-5-------------------------
E---------------5------------------------------------------------

e----------------------------------------------------------------
B----------------------------------------------------------------
G--0-0---0-0-----------------------------------------------------
D----------------------------------------------------------------
A-8-8-8-7-7-7-5--------5-7-8-7-5-7-5-3-5-------------------------
E---------------5------------------------------------------------

e----------------------------------------------------------------
B----------------------------------------------------------------
G----------------------------------------------------------------
D---------------------------------5-5-5-5-5-5-5-5----------------
A-8-8-8-8-8-8-8-8-7-7-7-7-7-7-7-7-5-5-5-5-5-5-5-5-5-5-5-5-5-5-5-5
E----------------------------------------------------------------

e----------------------------------------------------------------
B----------------------------------------------------------------
G----------------------------------------------------------------
D----------------------------------------------------------------
A-8-8-8-8-8-8-8-8-7-7-7-7-7-7-7-7-5-5-5-5-5-5-5-5-5-5-5-5-5-5-5-5
E----------------------------------------------------------------

e----------------------------------------------------------------
B--------0-------------------------------------------------------
G--0----0-0------------------------------------------------------
D----------------------------------------------------------------
A-8-8--7---7-5---------5-7-8-7-5-7-5-3-5-------------------------
E-------------5--------------------------------------------------

e----------------------------------------------------------------
B----------------------------------------------------------------
G----------------------------------------------------------------
D----------------------------------------------------------------
A-8-8-8-8-8-8-8-8-7-7-7-7-7-7-7-7-5-5-5-5-5-5-5-5-5-5-5-5-5-5-5-5
E----------------------------------------------------------------

e----------------------------------------------------------------
B----------------------------------------------------------------
G----------------------------------------------------------------
D----------------------------------55--77--------77--------------
A-5-7-8-8-8-8-8-8-8-8-7-7-7-7-7-7-7--88--88-55-88--88------------
E----------------------------------------------------------------

e----------------------------------------------------------------
B----------------------------------------------------------------
G----------------------------------------------------------------
D----------------------------------------------------------------
A-8-8-8-8-8-8-8-8-7-7-7-7-7-7-7-7-5-5-5-5-5-5-5-5-5-5-5-5-5-5-5-5
E----------------------------------------------------------------

e----------------------------------------------------------------
B----------------------------------------------------------------
G----------------------------------------------------------------
D------------------------------------5-5-5-5-5-5-5-5-5-5-5-5-5-5-
A-5-7-8-8-8-8-8-8-8-8-7-7-7-7-7-7-7-7----------------------------
E----------------------------------------------------------------

e----------------------------------------------------------------
B----------------------------------------------------------------
G----------------------------------------------------------------
D----------------------------------------------------------------
A-8-8-8-8-8-8-8-8-7-7-7-7-7-7-7-7-5-5-5-5-5-5-5-5-5-5-5-5-5-5-5-5
E----------------------------------------------------------------

e----------------------------------------------------------------
B----------------------------------------------------------------
G----------------------------------------------------------------
D----------------------------------55--77--------77--------------
A-5-7-8-8-8-8-8-8-8-8-7-7-7-7-7-7-7--88--88-55-88----------------
E----------------------------------------------------------------

e----------------------------------------------------------------
B------------------------------------------------------------------
G----------------------------------------------------------------
D----------------------------------------------------------------
A-8-8-8-8-8-8-8-8-7-7-7-7-7-7-7-7-5-5-5-5-5-5-5-5-5-5-5-5-5-5-5-5
E----------------------------------------------------------------

e----------------------------------
B-/18-18-18-18-18-18-18-18-18-18~~~       
G----------------------------------------------------------------
D----------------------------------------------------------------
A----------------------------------------------------------------
E----------------------------------------------------------------


e---------------------------1515151515151515151515151515151515\~~
B-171717171717171717171717~~--------------------------------
G----------------------------------------------------------------
D----------------------------------------------------------------
A----------------------------------------------------------------
E----------------------------------------------------------------


e-13-12-10-12----10-12----10-12----10-12-----10-12---13-12-13-12-
B----------------------------------------------------------------
G----------------------------------------------------------------
D----------------------------------------------------------------
A----------------------------------------------------------------
E----------------------------------------------------------------

e-13-12-10-12-10-12-13-12-10-12-10-12----------------------------
B------------------------------------10--------------------------
G----------------------------------------------------------------
D----------------------------------------------------------------
A----------------------------------------------------------------
E----------------------------------------------------------------

e----------------------------------------------------------------
B--------0-------------------------------------------------------
G--0----0-0------------------------------------------------------
D----------------------------------------------------------------
A-8-8--7---7-5---------5-7-8-7-5-7-5-3-5-------------------------
E-------------5--------------------------------------------------





Comentarios del colaborador: es del disco que dice palestina 87.. la primera cancion que dura 2.40', no la que es en vivo,

Calificar esta versión:
Aviso: Este fichero es trabajo propio de su transcriptor y representa su interpretación personal de la canción. El material contenido en esta página es para exclusivo uso privado, por lo que se prohibe su reproducción o retransmisión, así como su uso para fines comerciales.