Great Big White World, Marilyn Manson (tablatura)

Autor: Wolfdark | 43514 visualizaciones



Introduccion:
   Primera estrofa      para las otras tres
e|--------------------|----------------------------|
B|-1--4-3----1--4-3-1-|--1--4-3----1--4-3-1--------|
G|----------3---------|-3---------3----------------|
D|--------------------|----------------------------|
A|--------------------|----------------------------|
E|--------------------|----------------------------|
In space the stars are no nearer
they just glitter like a morgue
and i dreamed i was a spaceman
burned like a moth in a flame
and our world was so fucking gone


En el tiempo donde suena el teclado
mas o menos sonaría algo así en la guitarra:
e|--------1---------------|
B|-4---1-----3---1----1---|
G|-----------------1----1-|
D|------------------------|
A|------------------------|
E|------------------------|



e|-----------------------------------------------------|
B|--4-3--4-3--4--4-3--4-3--4--4-3--4-3--4--4-3--4-3--4-|
G|-5----5----5--4----4----4--3----3----3--2----2----2--|
D|-----------------------------------------------------|
A|-----------------------------------------------------|
E|-----------------------------------------------------|
But i'm not attached to your world
nothing heals and nothing grows

    Para la primera estrofa    para las otras tres
e|---------------------------8-|------------------------8-|
B|-------6-8-6---------6-7-6---|----6-8-6---------6-7-6---|
G|-5--7-8-----8-5---5-8-----8--|-5-8-----8-5---5-8-----8--|
D|-----------------------------|--------------------------|
A|-----------------------------|--------------------------|
E|-----------------------------|--------------------------|
Because it's a great big white world
and we are drained of our colors
we used to love ourselves,
we used to love one another

e|----------------------- ----------------------------|
B|----------------------------------------------------|
G|----------------------------------------------------|
D|-3---6---10---8---6---5-----------------------------|
A|-3---6---10---8---6---5-----------------------------|
E|-1---4---8----6---4---3-----------------------------|
all my stitches itch
my prescriptions low, i wish you
were queen
just for today
in a world so white what else could i say?

e|--------------------|--------------------------------|
B|-1--4-3----1--4-3-1-|--1--4-3----1--4-3-1------------|
G|----------3---------|-3---------3--------------------|
D|--------------------|--------------------------------|
A|--------------------|--------------------------------|
E|--------------------|--------------------------------|
And hell was so cold
all the vases are so broken
and the roses tear our hands all open
mother mary miscarry
but we pray just like insects
the world is so ugly now

e|---------------------------8-|------------------------8-|
B|-------6-8-6---------6-7-6---|----6-8-6---------6-7-6---|
G|-5--7-8-----8-5---5-8-----8--|-5-8-----8-5---5-8-----8--|
D|-----------------------------|--------------------------|
A|-----------------------------|--------------------------|
E|-----------------------------|--------------------------|
Because it's a great big white world
and we are drained of our colors
we used to love ourselves,
we used to love one another

e|------------------------------------------------------|
B|------------------------------------------------------|
G|------------------------------------------------------|
D|-3---5/6---10---10/8---3---6---10---10/8---8/6---6/5--|
A|-3---5/6---10---10/8---3---6---10---10/8---8/6---6/5--|
E|-1---3/4---8----8/6----1---4---8----8/6----6/4---4/3--|
all my stitches itch
my prescriptions low, i wish you
were queen
just for today
in a world so white what else could i say?

e|-----------------------------------------------------|
B|--4-3--4-3--4--4-3--4-3--4--4-3--4-3--4--4-3--4-3--4-|
G|-5----5----5--4----4----4--3----3----3--2----2----2--|
D|-----------------------------------------------------|
A|-----------------------------------------------------|
E|-----------------------------------------------------|
A great big white world
and we are drained of our colors
we used to love ourselves,
we used to love one another

e|------------------------------------------------------|
B|------------------------------------------------------|
G|------------------------------------------------------|
D|-3---5/6---10---10/8---3---6---10---10/8---8/6---6/5--|
A|-3---5/6---10---10/8---3---6---10---10/8---8/6---6/5--|
E|-1---3/4---8-----8/6---1---4---8-----8/6---6/4---4/3--|

Esta parte es un tanto lenta cuando vuelve a cantar antes de terminar el tema va junta con lo de aquí arriba pero es con otra guitarra:
e|------------------3-4/3--4/3--4/3-1-|---3-4/3--4/3--4/3-1-|
B|----------1----3--------------------|---------------------|
G|-0----1-3---------------------------|---------------------|
D|------------------------------------|---------------------|
A|------------------------------------|---------------------|
E|------------------------------------|---------------------|

Nota: Es la primera vez que subo algo y bueno esto lo saque al oído nada más y con guitarra acústica espero salga igual en guitarra eléctrica.





Comentarios del colaborador: me costó un tanto hacerlo, ojala les sirva en algo aunque creo no se entiende tan bien y le falta algo. espero sus comentarios constructivos y destructivos si es que les gusto pueden mencionar temas en los comentarios y quizás pueda también sacarlos ya que tengo algunos temas que no encuentro en aquí.

Calificar esta versión:
Aviso: Este fichero es trabajo propio de su transcriptor y representa su interpretación personal de la canción. El material contenido en esta página es para exclusivo uso privado, por lo que se prohibe su reproducción o retransmisión, así como su uso para fines comerciales.