Uno, Mariano Mores (tablatura)

Autor: 26fede26 | 19722 visualizaciones

   Uno busca lleno de esperanzas el camino que los sueños prometieron a sus ansias.
E|-|-------------------------------------------------------------|
B|-|-1-1-1-1-1-1-0-1-2-2-2-2-2-2-1-2-3-3-3-3-3-3-2-3-4-3---------|
G|-|-------------------------------------------------------------|
D|-|-------------------------------------------------------------|
A|-|-------------------------------------------------------------|
E|-|-------------------------------------------------------------|

   Sabe que la lucha es cruel y es mucha, pero  lucha y se desangra por la fe que lo empecina.
E|-|-------------------------------------------------------------|
B|-|-3-3-3-3-3-3-3-2-3-4-4-4-4-4-4-3-4-5-5-5-5-5-5-4-5-6-5-------|
G|-|-------------------------------------------------------------|
D|-|-------------------------------------------------------------|
A|-|-------------------------------------------------------------|
E|-|-------------------------------------------------------------|

   Uno va arrastrándose entre espinas, y en su afán de dar su amorsufre y se destroza, hasta entender que uno se ha quedao sin corazón.
E|-|-3-1-3-1-3-1-0-1-0---0---0---0-------------------------------|
B|-|-------------------3---3---3---3---3-1-3-1-3-1-0-1-3---------|
G|-|---------------------------------2---------------------------|
D|-|-------------------------------------------------------------|
A|-|-------------------------------------------------------------|
E|-|-------------------------------------------------------------|

   Precio de castigo que uno entrega por un beso que no llega o un amor que lo engañó;
E|-|-5-3-5-3-5-3-2-3-2-0-2-0-2-0-----3-2-3-2-3-2-0-2-0-----------|
B|-|-----------------------------4-5-----------------------------|
G|-|-------------------------------------------------------------|
D|-|-------------------------------------------------------------|
A|-|-------------------------------------------------------------|
E|-|-------------------------------------------------------------|
   vacío ya de amar y de llorar tanta traición...
E|-|---------5-1-0----------3------------------------------------|
B|-|-3-1-3-1--------3-1---1--------------------------------------|
G|-|--------------------2----------------------------------------|
D|-|-------------------------------------------------------------|
A|-|-------------------------------------------------------------|
E|-|-------------------------------------------------------------|

   Si yo tuviera el corazón, el corazón que di; si yo pudiera, como ayer, querer sin presentir...
E|-|-0-1-0-1-0-----0-0-1-3-5-5---1-3-1-3-1-0---1-1-3-5-7-7-0-----|
B|-|-----------3-1-------------3-------------3-------------------|
G|-|-------------------------------------------------------------|
D|-|-------------------------------------------------------------|
A|-|-------------------------------------------------------------|
E|-|-------------------------------------------------------------|

   Es posible que a tus ojos, que hoy me gritan su cariño, los cerrara con mis
E|-|-0-1-3-5-5-7-8-7-7-7-8-7-8-7-8-7-7-7-8-7-8-7-8-5-3-----------|
B|-|-------------------------------------------------------------|
G|-|-------------------------------------------------------------|
D|-|-------------------------------------------------------------|
A|-|-------------------------------------------------------------|
E|-|-------------------------------------------------------------|

   besos sin pensar era como esos otros ojos, los perversos, los que hundieron mi  vivir...
E|-|---0-1-1-3-1-1-1-3-1-3-1-3-------1---1-3-0-------------------|
B|-|-3-------------------------4-4-4---4--------2----------------|
G|-|-------------------------------------------------------------|
D|-|-------------------------------------------------------------|
A|-|-------------------------------------------------------------|
E|-|-------------------------------------------------------------|
 
   Si yo tuviera el corazón, el mismo que perdí; si olvidara a la que ayer lo destrozó y pudiera amarte...
E|-|---------------------0-2-2---------0-2-4-5-5-5-5-5-5-5-5-5-0------|
B|-|-2-3-2-3-2-0---2-2-3-------0-0-2-3----------------------------3-2-|
G|-|-------------2----------------------------------------------------|
D|-|------------------------------------------------------------------|
A|-|------------------------------------------------------------------|
E|-|------------------------------------------------------------------|

      
   Me abrazaría a tu ilusión para llorar tu amor...
E|-|-----0-2-----------------------------------------------------|
B|-|-2-3-----3-2-0-3-------2-2-----------------------------------|
G|-|---------------------1-----2---2-----------------------------|
D|-|-----------------2-4---------2-------------------------------|
A|-|-------------------------------------------------------------|
E|-|-------------------------------------------------------------|


Comentarios del colaborador: Bueno aquí les deje el puenteo de este buen tango que les guste y les sirva,comenten que les pareció y guíense con la letra.Suerte

Calificar esta versión:
Aviso: Este fichero es trabajo propio de su transcriptor y representa su interpretación personal de la canción. El material contenido en esta página es para exclusivo uso privado, por lo que se prohibe su reproducción o retransmisión, así como su uso para fines comerciales.