Insecto De Oro, Manuel Garcia (tablatura)

Autor: Bryan98 | 18616 visualizaciones

Capo en el tercer espacio.

Intro:


SI/MIb*             MIm/SIb*     REm                         DO
e[---------------------------------------1-------------1-----------------]
B[-------------4---4-3---3------------3----3--------3----3-------------1-]
G[---------3-3---3---3-3---5-3-0---2---------2---2---------2--------0----]
D[-5-5-5-5-5---------5-----------0-------------0-----------------2-------]
A[------------------------------------------------------------3----------]
E[-----------------------------------------------------------------------]
  DO   DO4            DO           DO4          SOLm4*
e[-----------------------------------------------------------------------]
B[---------------1------------1-----------1------------------------------]
G[-0----------0----0--------0---0-------0---0------------3---3--------3--]
D[---2-----3---------2----2-------2---3-------3------0-0---0------0-0---0]
A[------3--------------3------------3------------------------------------]
E[------------------------------------------------3-------------3--------]
  SOLm4* - DO           DO4           SOLm4*
e[-----------------------------------------------------------------------]
B[-----------------1-----------1-----------------------------------------]
G[-3------------0----0-------0---0-------------3---3--------3----3-------]
D[-----------2---------2---3-------3-------0-0---0------0-0---0----------]
A[--------3--------------3-----------------------------------------------]
E[--------------------------------------3-------------3------------------]

         DO             DO4         DO         DO4
e[-----------------------------------------------------------------------]
B[-----------------1-----------1-----------1---------1-------------------]
G[--------------0----0-------0---0-------0---0-----0---0-----------------]
D[-----------2---------2---3-------3---2------2--3-------3---------------]
A[--------3--------------3-----------3---------3-----------3-------------]
E[-----------------------------------------------------------------------]

  SI/MIb*              luego comienza A cantar en SI/MIb* y se repite.
e[-----------------------------------------------------------------------]
B[-------4---4--------4---4----------------------------------------------]
G[---3-3---3------3-3---3------------------------------------------------]
D[-4------------4--------------------------------------------------------]
A[-----------------------------------------------------------------------]
E[-----------------------------------------------------------------------]






SI/MIb*            MIm/SIb*        REm
Tengo un insecto de oro en el corazón
                 DO             DO4           DO        DO4
que le reza al sol y que hace figuritas de papel de arroz

SOLm4*                              DO    DO4
mientras avanza la noche oigo crepitar
SOLm4*                                DO    DO4
patas metalicas que hilan en la oscuridad
SOLm4*                              DO    DO4
hilo de seda que hace que mi despertar
SOLm4*                                 DO - DO7
sea mas dúlce pero al mismo tiempo irreal ha-ha-ha

Intermedio rasgueado ritmo de blues: Fa-Fa#-Sol*-Do-Do7-Fa-Fa#-Sol*

   SI/MIb* (Entra con esta variación) Mim/Sib*
e[-----------------------------------------------------------------------]
B[-----------------------------------------------------------------------]
G[-3-3-3-5-3-5-3-3-3-5-3-5------------2-2-2-3-2-3-2-2-2-3-2-3-2-2-2------]
D[-5-5-5-5-5-5-5-5-5-5-5-5------------0-0-0-0-0-0-0-0-0-0-0-0-0-0-0------]
A[-----------------------------------------------------------------------]
E[-----------------------------------------------------------------------]

SI/MIb*                           MIm/SIb*
Tengo un insecto de oro en el corazón
                 DO              DO4                DO-DO7-DO/SOL
que le reza al sol y que hace figuritas de papel de arroz.


Acordes  : 654321

SI/MIb*  : 005340
Mim/Sib* : 005330
Do4      : 033010
Solm4*   : 300330
Sol*     : 355433
Do/Sol   : 332010

Ojala que les sirva
salu2

Comunidad de los manueles...
Calificar esta versión:
Aviso: Este fichero es trabajo propio de su transcriptor y representa su interpretación personal de la canción. El material contenido en esta página es para exclusivo uso privado, por lo que se prohibe su reproducción o retransmisión, así como su uso para fines comerciales.