Die For Metal, Manowar (tablatura)

Autor: facundoz | 24856 visualizaciones



die for metal

intro x2
e---------------------------------------------------------------
b---------------------------------------------------------------
g---------------------------------------------------------------
d--7-7-7-7--8-8-8-8----7-7-7-7--5-5-5-5-------------------------
a--5-5-5-5--5-5-5-5----3-3-3-3--2-2-2-2-------------------------
e---------------------------------------------------------------

e----------------------
b----------------------
g----------------------
d--3-2-3-0-------------
a--1-0-1-0-------------
e--------0-------------

riff 2 x5
e---------------------------------------------------------------
b---------------------------------------------------------------
g---------------------------------------------------------------
d--0---------2---------3---------5---------0--------------------
a--0---------2---------3---------5---------0--------------------
e--0-0-0-0-0-2-2-2-2-2-3-3-3-3-3-5-5-5-5-5-0--------------------

riff 3 x2
e---------------------------------------------------------------
b---------------------------------------------------------------
g--7--9--10--12-------------------------------------------------
d--7--9--10--12-------------------------------------------------
e--5--7--8---10-------------------------------------------------

riff 4 x2
e---------------------------------------------------------------
b---------------------------------------------------------------
g---------------------------------------------------------------
d--7-7-7-7--8-8-8-8--5-5-5----7-7-7-7--5-5-5-5--3-2-3-0---------
a--5-5-5-5--5-5-5-5--5-5-5----3-3-3-3--2-2-2-2--1-0-1-0---------
e-----------------------------------------------------0---------

riff2 x4
riff4 x2
riff2 x4

riff4 x4
end





Calificar esta versión:
Aviso: Este fichero es trabajo propio de su transcriptor y representa su interpretación personal de la canción. El material contenido en esta página es para exclusivo uso privado, por lo que se prohibe su reproducción o retransmisión, así como su uso para fines comerciales.