Sueño 28, Manolo García (tablatura)

Autor: Anónimo | 23575 visualizaciones

E||-------0-1-3-1-0---|-------0-1-3-1-0-|-------0-1-3-1-0--|
B||--3--3-------------|--3--3-----------|--3--3------------|
G||---2---------------|----2------------|----2-------------|
D||-------------------|-----------------|------------------|
A||-------------------|-----------------|------------------|
E||-------------------|-----------------|------------------|

E||-------0-1-3-1-0---|------0-1-3-1----|-------0-1-3------|
B||--3--3-------------|----3------------|--3--3------------|
G||---2---------------|--2--------------|----2-------------|
D||-------------------|-----------------|------------------|
A||-------------------|-----------------|------------------|
E||-------------------|-----------------|------------------|

E||-------0-1-3-------|--1---1--0-1-3---|-------0-1-3------|
B||--3--3-------------|----1------------|--3--3------------|
G||----2--------------|-----------------|----2-------------|
D||-------------------|-----------------|------------------|
A||-------------------|-----------------|------------------|
E||-------------------|-----------------|------------------|

E||-------0-1-3-------|-------0-1-3-----|-------0-1-3------|
B||--3--3-------------|--3--3-----------|--3--3------------|
G||---2---------------|----2------------|----2-------------|
D||-------------------|-----------------|------------------|
A||-------------------|-----------------|------------------|
E||-------------------|-----------------|------------------|

E||----1-0-1-3-5------|----1-0-1-3-1----|---------0-1-3-1-0|
B||--1----------------|--1--------------|--3---3-----------|
G||-------------------|-----------------|----2-------------|
D||-------------------|-----------------|------------------|
A||-------------------|-----------------|------------------|
E||-------------------|-----------------|------------------|


He aqui la canción instrumental de este disco...
Si encontrais algo 'raro'o que no os cuadre, no dudeis en decirmelo
 1 Saludo :)
Calificar esta versión:
Aviso: Este fichero es trabajo propio de su transcriptor y representa su interpretación personal de la canción. El material contenido en esta página es para exclusivo uso privado, por lo que se prohibe su reproducción o retransmisión, así como su uso para fines comerciales.