Insurección, Manolo García (acordes)

Autor: Anónimo | 30684 visualizaciones

doffamim
La[r]es de rasgueo, pero es opcional queda más bonita
con ello pero eso ya es el gusto de cada uno.Disfrutadala ;]



   (DoDo       (F(FFa       Do[r]        Fa   Do[r]         Fa
E||-------------------|-----------------|------------------|
B||-------------------|-----------------|------------------|
G||---------0---0---0-|---------0--0--0-|---------0--0--0--|
D||---2-0-2---3---3---|---2-0-2--3---3--|---2-0-2--3--3----|
A||-3-----------------|-3---------------|-3----------------|
E||-------------------|-----------------|------------------|



Do             Fa
Donde estabas entonces
    DoDo              Fa    Do[r]
cuando tanto te necesite
                   Fa
Nadie es mejor que nadie
    DoDo             Fa     Do[r]
pero tú, creiste vencer
               Fa
Si lloré ante tu puerta
  (SOL)       Mim      Sol[r]
de nada sirviooooooó

           Do
Barras de bar
      Fa        Do   Fa
vertederos de amor
      (SOL)DO)        Fa     Mim   Sol[r]
os enseñe, mi trocito peor
              Do
retales de mi vida
Fa            Do   Fa
fotos a contraluz
Do         Fa             Do
Me siento hoy, como un halcón
        Fa                              Do
herido por las brechas de la incertidumbre

   (DoDo       (F(FFa       Do[r]        Fa   Do[r]         Fa
E||-------------------|-----------------|------------------|
B||-------------------|-----------------|------------------|
G||---------0---0---0-|---------0--0--0-|---------0--0--0--|
D||---2-0-2---3---3---|---2-0-2--3---3--|---2-0-2--3--3----|
A||-3-----------------|-3---------------|-3----------------|
E||-------------------|-----------------|------------------|

Do    Do     Fa  Fa         Do      Fa      Do[r]     Fa
Me corto el pelo una y otra vez
  (SOL)          Mim      Sol[r]
Me quiero defendeeeeeeer
         Do     Fa        Do     Fa
Dame mi alma y dejame en paz
      (SOL) Do        Fa        Mim    Sol[r]
quiero intentar no volver a caer
          Do     Fa
Pequeñas tretas
           Do        Fa
para continuar en la brecha
Do        Fa             Do
Me siento hoy como un halcón
       Fa                        Do
llamado a las filas de la insurrección
Calificar esta versión:
Aviso: Este fichero es trabajo propio de su transcriptor y representa su interpretación personal de la canción. El material contenido en esta página es para exclusivo uso privado, por lo que se prohibe su reproducción o retransmisión, así como su uso para fines comerciales.