Arde La Ciudad, Mancha De Rolando (acordes)

Autor: lucasm741 | 29487 visualizaciones

amcfg
C        G          Am
Tu equipo volvió a ganar,
C        G          Am
te prendieron mil bengalas hoy,
C        G          Am     F
la banda grita tu nombre y ves 
C        G          Am
como la popular se va a caer
C        G          Am
Pero tu estrella no está más
C        G      Am     F
Se la llevó la mañana.. oh oh oh oh


C             G   Am                F
Arde la ciudad, llueve en tu mirada gris,

C             G               Am
la gente festeja y vuelve a reir,
C             G      Am                    F
pero este carnaval, que hoy no te deja dormir,
C              G             Am
mires donde mires ella esta ahí

C       G           Am
La vida siempre es así,
C       G           Am
te da y te quieta por nada


C       G       Am       F
aunque estes solo, sin corazón
C       G           Am
ahora tenes que seguir la funcion

 C       G        Am
y es una fiesta el bodegón
C                    G                   Am                             F
donde se junta la hinchada   oh oh oh oh oh 



C             G   Am                F
Arde la ciudad, llueve en tu mirada gris,

C             G               Am
la gente festeja y vuelve a reir,
C             G      Am                    F
pero este carnaval, que hoy no te deja dormir,
C              G             Am
mires donde mires ella esta ahí



Y EL SOLO VA MASOMENOS ASII






1----------------------------------
2----------------------------------
3--------12---12-----12-----12------
4----------12----12-----12------12--
5----------------------------------
6-----------------------------------



1------------------------------------------
2------------------------------------------
3----14----14-----14------14----------------
4-------------12---------12----------12-----------12--------------------
5----------------------------------------------------------------------------
6----------------------------------------------------------------------------



1--------------------------------------------------------------------
2--------------------------------------------------------------------
3----16---16 --16---14---14---14---12---------------------------
4--------------------------------------------------------------------
5---------------------------------------------------------------------
6---------------------------------------------------------------------

CORO.. 




-

Comentarios del colaborador: la ultima parte del solo esta un poco improvisada.....

Calificar esta versión:
Aviso: Este fichero es trabajo propio de su transcriptor y representa su interpretación personal de la canción. El material contenido en esta página es para exclusivo uso privado, por lo que se prohibe su reproducción o retransmisión, así como su uso para fines comerciales.