Kumbala, Maldita Nerea (acordes)

Autor: fran-lcn | 28941 visualizaciones

amb7eem
Bajo                              Intro
1-------------------------------------|--------------------------------------------------------------
2-------------------------------------|--8--10--12--8--10--12--10--8--7--7--8--10--7--8--10--8--7--5-
3-------------------------------------|--------------------------------------------------------------
4-------------------------------------|--------------------------------------------------------------
5----3--2-----3--2------3--2----2--3--|--------------------------------------------------------------
6--0-------0----------0-------0-------|--------------------------------------------------------------


1--12--14--15--12----------------12--|
2--12-------------15--12---------12--|
3--12--------------------14--12--12--|
4------------------------------------|
5------------------------------------|
6------------------------------------|


 Em         B7
Luz.....Roja es la luz
    Am
luz de neon
      Em
que anuncioa el lugar

baile ' Kumbala Bar '
       B7
y adentro la noche es
      Em
musica y pasion.

1---------------------------------------------------------------|
2--7--8--7--5----7h87--5-----------------7--8--7--8--10--12--8--|
3-------------4----------4--4--5--5--5/8------------------------|
4---------------------------------------------------------------|
5---------------------------------------------------------------|
6---------------------------------------------------------------|


 Em                    B7
Sol...... no entiendes lo que pasa aqui
    Am
esto es la noche
     Em
y de la noche son

las cosas del amor
       B7
el corazon a media luz
       Em
siempre se entregara.

 Em                B7
Mar...... todo el hambiente huele a mar
  Am
mucho calor
   Em
sudores en la piel

sudor sabor a sal
  B7
y en la pista una pareja
          Em
se vuelve a enamorar.


1---------------------------------------------------------------|
2--7--8--7--5----7h87--5-----------------7--8--7--8--10--12--8--|
3-------------4----------4--4--5--5--5/8------------------------|
4---------------------------------------------------------------|
5---------------------------------------------------------------|
6---------------------------------------------------------------|

1----12--11------------------------------------------------------------------------------------------------------|
2-12--------12--12--11--10--------------------------------------------------------------------7--8--10--12--8--7-|
3--------------------------12--11--9--8---------------------------------------------8--9--8----------------------|
4---------------------------------------9--10----9--10--9--10--9--7--9--10--9--7--9---------9--------------------|
5----------------------------------------------------------------------------------------------------------------|
6----------------------------------------------------------------------------------------------------------------|

Aqui empieza la parte rapida de la cancion.

1-----------------------------------------------------------------------------------------------|
2--7--8--7--5----7h87--5---8--7--8--10--8--10--15h1615--14h1514--13h1413--12h1312--11h1211--11--|
3-------------4----------4----------------------------------------------------------------------|
4-----------------------------------------------------------------------------------------------|
5-----------------------------------------------------------------------------------------------|
6-----------------------------------------------------------------------------------------------|


  Em              B7
Una risa.......una caricia
    Am               E
y en la pista una pareja
             B7     Em
se vuelve a enamorar.

 Em
Un sabroso y buen danzon
   B7
a media luz el corazon
    Am              Em
y en el kumbala todo es
     B7       Em
musica y pasion.

1--12--14--15--12----------------12--12------------12-----------------------|
2--12-------------15--12---------12--12-----10--12----12--10----10----------|
3--12--------------------14--12--12--12--12------------------12----12--12/9-|
4---------------------------------------------------------------------------|
5---------------------------------------------------------------------------|
6---------------------------------------------------------------------------|
Calificar esta versión:
Aviso: Este fichero es trabajo propio de su transcriptor y representa su interpretación personal de la canción. El material contenido en esta página es para exclusivo uso privado, por lo que se prohibe su reproducción o retransmisión, así como su uso para fines comerciales.