Por Amor (intro), Luis Barni (tablatura)

Autor: gaby-argento | 18535 visualizaciones



INTRO
--------0-1--0h1p0-----------------
------3------------3----------0-1--
----2----------------2------2------
--0-----------------------2--------
------------------------0----------
-----------------------------------

--------0-1--0h1p0-----------------
------3------------3----------0-1--
----2----------------2------2------
--0-----------------------2--------
------------------------0----------
-----------------------------------

---3--3----3--3--------------------
---2--2----2--2--------------------
---4--4----4--4--------------------
---2--2----2--2--------------------
-----------------------------------
-----------------------------------





Calificar esta versión:
Aviso: Este fichero es trabajo propio de su transcriptor y representa su interpretación personal de la canción. El material contenido en esta página es para exclusivo uso privado, por lo que se prohibe su reproducción o retransmisión, así como su uso para fines comerciales.