Soy Un Inconsciente, Luciano Pereyra (tablatura)

Autor: PiTTy183 | 19478 visualizaciones

E:----10-12-13-12-10-12-13--------|
B:-10----------------------10-11--|     
G:--------------------------------|
D:--------------------------------|
A:--------------------------------|
E:--------------------------------|
INTRO:

E:----9-10-12-10-9-10-12----------|
B:-10--------------------10-11-10-|     
G:--------------------------------|
D:--------------------------------|
A:--------------------------------|
E:--------------------------------|


E:-10-10-10---10-12-13-10--10-12-13-9-10-12-13-10--|
B:----------10-----------10------------------------|     
G:-------------------------------------------------|
D:-------------------------------------------------|
A:-------------------------------------------------|
E:-------------------------------------------------|



REm                                SOLm  LA
Inconscientemente estoy pensando en ti
             REm
  Estoy bloqueado
                SOLm  LA
 Como viene la vida
                REm
No le encuentro salida
                       LA7                REm
Estoy Jhoqueado estoy enamorado tu estas en mi
                                 SOLm  LA             REm
 Si con esta onda siento niso en vos       me miran raro
               SOLm   LA              REm
Y no creen mis amigos que me pasa contigo
           SOLm         LA7              REm  DO#
En todas partes veo tu figura siento tu calor

Estribillo
DO               FA                    LA7               REm
Alucinado con tu pensamiento vivo encadenado a este sufrimiento

DO                      FA             LA7               REm
Obsesionado con esta locura ya no se vivir me falta tu ternura
                        LA7                 REm
Estoy bloqueado estoy enamorado solo pienso en ti


LA7                   REm
La idea de tu amor me quema
LA7                   REm
La idea de tu amor me quema

E:-1-1-1-1-0-0-1-3--------------|
B:-----------------1-3-1-1------|      (PUNTEO ESCRIBILLO)
G:------------------------------|
D:------------------------------|
A:------------------------------|
E:------------------------------|

INTRO DE NUEVO
REm                                SOLm  LA
Inconscientemente estoy pensando en ti
           REm
Estoy soñando
                  SOLm  LA
Se me pasan los días
                    REm
Y no le encuentro salida
            SOLm              LA7                  REm  DO#
Es que no quiero perder la esperanza de que vuelvas tu

Alucinado con tu pensamiento vivo encadenado a este sufrimiento
Obsesionado con esta locura ya no se vivir me falta tu ternura
Estoy bloqueado estoy enamorado solo pienso en ti  (dos veces)


DO                     FA
Alucinado estoy obsesionado estoy
LA7                   REm
La idea de tu amor me quema (x3)

(PUNTEO ESCRIBILLO)
Calificar esta versión:
Aviso: Este fichero es trabajo propio de su transcriptor y representa su interpretación personal de la canción. El material contenido en esta página es para exclusivo uso privado, por lo que se prohibe su reproducción o retransmisión, así como su uso para fines comerciales.