Obligado Por Amor, Los Yonics (acordes)

Autor: Anónimo | 46079 visualizaciones

abmdg


D A G A D

                 A      D
No te puedes quejar de mi
                   G
si todo cuanto querias
              D   A
lo hice realidad
                  D
para salir de tu vida


               A    D
No te llamo a casa mas
                      G
ni te he buscado siquiera
                D     A
a pesar de la guerra
                  D
que libro dentro de mi


               A           G
Obligado por amor por amor
                     D            Bm
palmo a palmo cumplire tus deseos
                  G               A
por ejemplo te dire que en mi voz
                D
nunca mas escucharas algun te quiero


               A            G
Obligado por amor por amor
                     D             Bm
aunque sienta desgarrarse mi pecho
                         G            A
por el tiempo que he luchado por ti
                       D
sin haber logrado algo jamas

INTERMEDIO
1|----------7-9/10-9-9-7-9--7-7-7-9-9/10-7---------------------------7--------
2|----7-8-10-------------------------------10-9-10/12-10--10-10-10-10--7-7/8--
3|-7-9------------------------------------------------------------------------
4|----------------------------------------------------------------------------

1|--------------------------
2|-8-8-8-8-7----------------
3|----------9-7-6-7---------
4|--------------------------

Obligado por amor...





Calificar esta versión:
Aviso: Este fichero es trabajo propio de su transcriptor y representa su interpretación personal de la canción. El material contenido en esta página es para exclusivo uso privado, por lo que se prohibe su reproducción o retransmisión, así como su uso para fines comerciales.